  0
SECTION
  2
HEADER
  9
$ACADVER
  1
AC1015
  9
$ACADMAINTVER
 70
     6
  9
$DWGCODEPAGE
  3
ANSI_1254
  9
$INSBASE
 10
0.0
 20
0.0
 30
0.0
  9
$EXTMIN
 10
0.0
 20
0.0
 30
0.0
  9
$EXTMAX
 10
279.4
 20
215.9
 30
0.0
  9
$LIMMIN
 10
0.0
 20
0.0
  9
$LIMMAX
 10
279.4
 20
215.9
  9
$ORTHOMODE
 70
     0
  9
$REGENMODE
 70
     1
  9
$FILLMODE
 70
     1
  9
$QTEXTMODE
 70
     0
  9
$MIRRTEXT
 70
     1
  9
$LTSCALE
 40
1.0
  9
$ATTMODE
 70
     1
  9
$TEXTSIZE
 40
3.5
  9
$TRACEWID
 40
1.0
  9
$TEXTSTYLE
  7
Standard
  9
$CLAYER
  8
0
  9
$CELTYPE
  6
ByLayer
  9
$CECOLOR
 62
   256
  9
$CELTSCALE
 40
1.0
  9
$DISPSILH
 70
     0
  9
$DIMSCALE
 40
1.0
  9
$DIMASZ
 40
3.5
  9
$DIMEXO
 40
1.0
  9
$DIMDLI
 40
3.75
  9
$DIMRND
 40
0.0
  9
$DIMDLE
 40
0.0
  9
$DIMEXE
 40
1.0
  9
$DIMTP
 40
0.0
  9
$DIMTM
 40
0.0
  9
$DIMTXT
 40
3.5
  9
$DIMCEN
 40
2.5
  9
$DIMTSZ
 40
0.0
  9
$DIMTOL
 70
     0
  9
$DIMLIM
 70
     0
  9
$DIMTIH
 70
     1
  9
$DIMTOH
 70
     1
  9
$DIMSE1
 70
     0
  9
$DIMSE2
 70
     0
  9
$DIMTAD
 70
     1
  9
$DIMZIN
 70
     0
  9
$DIMBLK
  1

  9
$DIMASO
 70
     1
  9
$DIMSHO
 70
     1
  9
$DIMPOST
  1

  9
$DIMAPOST
  1

  9
$DIMALT
 70
     0
  9
$DIMALTD
 70
     3
  9
$DIMALTF
 40
0.0393700787
  9
$DIMLFAC
 40
1.0
  9
$DIMTOFL
 70
     1
  9
$DIMTVP
 40
0.0
  9
$DIMTIX
 70
     0
  9
$DIMSOXD
 70
     0
  9
$DIMSAH
 70
     0
  9
$DIMBLK1
  1

  9
$DIMBLK2
  1

  9
$DIMSTYLE
  2
ISO-25
  9
$DIMCLRD
 70
     0
  9
$DIMCLRE
 70
     0
  9
$DIMCLRT
 70
     0
  9
$DIMTFAC
 40
1.0
  9
$DIMGAP
 40
1.524
  9
$DIMJUST
 70
     0
  9
$DIMSD1
 70
     0
  9
$DIMSD2
 70
     0
  9
$DIMTOLJ
 70
     0
  9
$DIMTZIN
 70
     0
  9
$DIMALTZ
 70
     0
  9
$DIMALTTZ
 70
     0
  9
$DIMUPT
 70
     0
  9
$DIMDEC
 70
     2
  9
$DIMTDEC
 70
     2
  9
$DIMALTU
 70
     2
  9
$DIMALTTD
 70
     3
  9
$DIMTXSTY
  7
Standard
  9
$DIMAUNIT
 70
     0
  9
$DIMADEC
 70
     2
  9
$DIMALTRND
 40
0.0
  9
$DIMAZIN
 70
     0
  9
$DIMDSEP
 70
    44
  9
$DIMATFIT
 70
     3
  9
$DIMFRAC
 70
     0
  9
$DIMLDRBLK
  1

  9
$DIMLUNIT
 70
     2
  9
$DIMLWD
 70
    -2
  9
$DIMLWE
 70
    -2
  9
$DIMTMOVE
 70
     0
  9
$LUNITS
 70
     2
  9
$LUPREC
 70
     2
  9
$SKETCHINC
 40
1.0
  9
$FILLETRAD
 40
10.0
  9
$AUNITS
 70
     0
  9
$AUPREC
 70
     2
  9
$MENU
  1
.
  9
$ELEVATION
 40
0.0
  9
$PELEVATION
 40
0.0
  9
$THICKNESS
 40
0.0
  9
$LIMCHECK
 70
     0
  9
$CHAMFERA
 40
0.0
  9
$CHAMFERB
 40
0.0
  9
$CHAMFERC
 40
0.0
  9
$CHAMFERD
 40
0.0
  9
$SKPOLY
 70
     0
  9
$TDCREATE
 40
2460665.614684398
  9
$TDUCREATE
 40
2460665.489684398
  9
$TDUPDATE
 40
2460665.614684595
  9
$TDUUPDATE
 40
2460665.489684595
  9
$TDINDWG
 40
0.0000000116
  9
$TDUSRTIMER
 40
0.0000000116
  9
$USRTIMER
 70
     1
  9
$ANGBASE
 50
0.0
  9
$ANGDIR
 70
     0
  9
$PDMODE
 70
     0
  9
$PDSIZE
 40
-1.0
  9
$PLINEWID
 40
0.0
  9
$SPLFRAME
 70
     0
  9
$SPLINETYPE
 70
     6
  9
$SPLINESEGS
 70
     8
  9
$HANDSEED
  5
121
  9
$SURFTAB1
 70
     6
  9
$SURFTAB2
 70
     6
  9
$SURFTYPE
 70
     6
  9
$SURFU
 70
     6
  9
$SURFV
 70
     6
  9
$UCSBASE
  2

  9
$UCSNAME
  2

  9
$UCSORG
 10
0.0
 20
0.0
 30
0.0
  9
$UCSXDIR
 10
1.0
 20
0.0
 30
0.0
  9
$UCSYDIR
 10
0.0
 20
1.0
 30
0.0
  9
$UCSORTHOREF
  2

  9
$UCSORTHOVIEW
 70
     0
  9
$UCSORGTOP
 10
0.0
 20
0.0
 30
0.0
  9
$UCSORGBOTTOM
 10
0.0
 20
0.0
 30
0.0
  9
$UCSORGLEFT
 10
0.0
 20
0.0
 30
0.0
  9
$UCSORGRIGHT
 10
0.0
 20
0.0
 30
0.0
  9
$UCSORGFRONT
 10
0.0
 20
0.0
 30
0.0
  9
$UCSORGBACK
 10
0.0
 20
0.0
 30
0.0
  9
$PUCSBASE
  2

  9
$PUCSNAME
  2

  9
$PUCSORG
 10
0.0
 20
0.0
 30
0.0
  9
$PUCSXDIR
 10
1.0
 20
0.0
 30
0.0
  9
$PUCSYDIR
 10
0.0
 20
1.0
 30
0.0
  9
$PUCSORTHOREF
  2

  9
$PUCSORTHOVIEW
 70
     0
  9
$PUCSORGTOP
 10
0.0
 20
0.0
 30
0.0
  9
$PUCSORGBOTTOM
 10
0.0
 20
0.0
 30
0.0
  9
$PUCSORGLEFT
 10
0.0
 20
0.0
 30
0.0
  9
$PUCSORGRIGHT
 10
0.0
 20
0.0
 30
0.0
  9
$PUCSORGFRONT
 10
0.0
 20
0.0
 30
0.0
  9
$PUCSORGBACK
 10
0.0
 20
0.0
 30
0.0
  9
$USERI1
 70
     0
  9
$USERI2
 70
     0
  9
$USERI3
 70
     0
  9
$USERI4
 70
     0
  9
$USERI5
 70
     0
  9
$USERR1
 40
0.0
  9
$USERR2
 40
0.0
  9
$USERR3
 40
0.0
  9
$USERR4
 40
0.0
  9
$USERR5
 40
0.0
  9
$WORLDVIEW
 70
     1
  9
$SHADEDGE
 70
     3
  9
$SHADEDIF
 70
    70
  9
$TILEMODE
 70
     1
  9
$MAXACTVP
 70
    64
  9
$PINSBASE
 10
0.0
 20
0.0
 30
0.0
  9
$PLIMCHECK
 70
     0
  9
$PEXTMIN
 10
1.0000000000E+20
 20
1.0000000000E+20
 30
1.0000000000E+20
  9
$PEXTMAX
 10
-1.0000000000E+20
 20
-1.0000000000E+20
 30
-1.0000000000E+20
  9
$PLIMMIN
 10
0.0
 20
0.0
  9
$PLIMMAX
 10
420.0
 20
297.0
  9
$UNITMODE
 70
     0
  9
$VISRETAIN
 70
     1
  9
$PLINEGEN
 70
     0
  9
$PSLTSCALE
 70
     1
  9
$TREEDEPTH
 70
  3020
  9
$CMLSTYLE
  2
Standard
  9
$CMLJUST
 70
     0
  9
$CMLSCALE
 40
20.0
  9
$PROXYGRAPHICS
 70
     1
  9
$MEASUREMENT
 70
     1
  9
$CELWEIGHT
370
    -1
  9
$ENDCAPS
280
     0
  9
$JOINSTYLE
280
     0
  9
$LWDISPLAY
290
     1
  9
$INSUNITS
 70
     4
  9
$HYPERLINKBASE
  1

  9
$STYLESHEET
  1

  9
$XEDIT
290
     1
  9
$CEPSNTYPE
380
     0
  9
$PSTYLEMODE
290
     1
  9
$FINGERPRINTGUID
  2
{50eab5aa-cf6e-43e4-87fe-ac9068ba8d32}
  9
$VERSIONGUID
  2
{FAEB1C32-E019-11D5-929B-00C0DF256EC4}
  9
$EXTNAMES
290
     1
  9
$PSVPSCALE
 40
0.0
  9
$OLESTARTUP
290
     0
  0
ENDSEC
  0
SECTION
  2
CLASSES
  0
CLASS
  1
ACDBDICTIONARYWDFLT
  2
AcDbDictionaryWithDefault
  3
ObjectDBX Classes
 90
        0
280
     0
281
     0
  0
CLASS
  1
VISUALSTYLE
  2
AcDbVisualStyle
  3
ObjectDBX Classes
 90
     4095
280
     0
281
     0
  0
CLASS
  1
MATERIAL
  2
AcDbMaterial
  3
ObjectDBX Classes
 90
     1153
280
     0
281
     0
  0
CLASS
  1
SCALE
  2
AcDbScale
  3
ObjectDBX Classes
 90
     1153
280
     0
281
     0
  0
CLASS
  1
TABLESTYLE
  2
AcDbTableStyle
  3
ObjectDBX Classes
 90
     4095
280
     0
281
     0
  0
CLASS
  1
MLEADERSTYLE
  2
AcDbMLeaderStyle
  3
ACDB_MLEADERSTYLE_CLASS
 90
     4095
280
     0
281
     0
  0
CLASS
  1
SUN
  2
AcDbSun
  3
SCENEOE
 90
     1153
280
     0
281
     0
  0
CLASS
  1
ACDBPLACEHOLDER
  2
AcDbPlaceHolder
  3
ObjectDBX Classes
 90
        0
280
     0
281
     0
  0
CLASS
  1
LAYOUT
  2
AcDbLayout
  3
ObjectDBX Classes
 90
        0
280
     0
281
     0
  0
ENDSEC
  0
SECTION
  2
TABLES
  0
TABLE
  2
VPORT
  5
8
330
0
100
AcDbSymbolTable
 70
     1
  0
VPORT
  5
29
330
8
100
AcDbSymbolTableRecord
100
AcDbViewportTableRecord
  2
*Active
 70
     0
 10
0.0
 20
0.0
 11
1.0
 21
1.0
 12
139.7
 22
107.95
 13
0.0
 23
0.0
 14
10.0
 24
10.0
 15
10.0
 25
10.0
 16
0.0
 26
0.0
 36
1.0
 17
0.0
 27
0.0
 37
0.0
 40
215.9
 41
1.2941176471
 42
50.0
 43
0.0
 44
0.0
 50
0.0
 51
0.0
 71
     0
 72
  2000
 73
     1
 74
     3
 75
     0
 76
     0
 77
     0
 78
     0
281
     0
 65
     1
110
0.0
120
0.0
130
0.0
111
1.0
121
0.0
131
0.0
112
0.0
122
1.0
132
0.0
 79
     0
146
0.0
  0
ENDTAB
  0
TABLE
  2
LTYPE
  5
5
330
0
100
AcDbSymbolTable
 70
     6
  0
LTYPE
  5
14
330
5
100
AcDbSymbolTableRecord
100
AcDbLinetypeTableRecord
  2
ByBlock
 70
     0
  3

 72
    65
 73
     0
 40
0.0
  0
LTYPE
  5
15
330
5
100
AcDbSymbolTableRecord
100
AcDbLinetypeTableRecord
  2
ByLayer
 70
     0
  3

 72
    65
 73
     0
 40
0.0
  0
LTYPE
  5
16
330
5
100
AcDbSymbolTableRecord
100
AcDbLinetypeTableRecord
  2
Continuous
 70
     0
  3
Solid line
 72
    65
 73
     0
 40
0.0
  0
LTYPE
  5
6E
330
5
100
AcDbSymbolTableRecord
100
AcDbLinetypeTableRecord
  2
HIDDEN
 70
     0
  3
Hidden __ __ __ __ __ __ __ __ __ __ __ __ __ __
 72
    65
 73
     2
 40
1.905
 49
1.27
 74
     0
 49
-0.635
 74
     0
  0
LTYPE
  5
6F
330
5
100
AcDbSymbolTableRecord
100
AcDbLinetypeTableRecord
  2
PHANTOM
 70
     0
  3
Phantom ______  __  __  ______  __  __  ______
 72
    65
 73
     6
 40
12.7
 49
6.35
 74
     0
 49
-1.27
 74
     0
 49
1.27
 74
     0
 49
-1.27
 74
     0
 49
1.27
 74
     0
 49
-1.27
 74
     0
  0
LTYPE
  5
70
330
5
100
AcDbSymbolTableRecord
100
AcDbLinetypeTableRecord
  2
CENTER
 70
     0
  3
Center ____ _ ____ _ ____ _ ____ _ ____ _ ____
 72
    65
 73
     4
 40
10.16
 49
6.35
 74
     0
 49
-1.27
 74
     0
 49
1.27
 74
     0
 49
-1.27
 74
     0
  0
LTYPE
  5
71
330
5
100
AcDbSymbolTableRecord
100
AcDbLinetypeTableRecord
  2
CENTERX2
 70
     0
  3
Center (2x) ________  __  ________  __  _____
 72
    65
 73
     4
 40
20.32
 49
12.7
 74
     0
 49
-2.54
 74
     0
 49
2.54
 74
     0
 49
-2.54
 74
     0
  0
LTYPE
  5
72
330
5
100
AcDbSymbolTableRecord
100
AcDbLinetypeTableRecord
  2
DOT2
 70
     0
  3
Dot (.5x) ........................................
 72
    65
 73
     2
 40
0.635
 49
0.0
 74
     0
 49
-0.635
 74
     0
  0
ENDTAB
  0
TABLE
  2
LAYER
  5
2
330
0
100
AcDbSymbolTable
 70
    17
  0
LAYER
  5
10
330
2
100
AcDbSymbolTableRecord
100
AcDbLayerTableRecord
  2
0
 70
     0
 62
     7
  6
Continuous
370
    -3
390
F
  0
LAYER
  5
73
330
2
100
AcDbSymbolTableRecord
100
AcDbLayerTableRecord
  2
FORMAT
 70
     0
 62
     7
  6
Continuous
370
    -3
390
F
  0
LAYER
  5
74
330
2
100
AcDbSymbolTableRecord
100
AcDbLayerTableRecord
  2
YARDIMCI_GEOMETRI
 70
     0
 62
    -6
  6
Continuous
290
     0
370
    -3
390
F
  0
LAYER
  5
75
330
2
100
AcDbSymbolTableRecord
100
AcDbLayerTableRecord
  2
SAYFA_CERCEVESI
 70
     0
 62
     7
  6
Continuous
370
    25
390
F
  0
LAYER
  5
76
330
2
100
AcDbSymbolTableRecord
100
AcDbLayerTableRecord
  2
ANTET
 70
     0
 62
     7
  6
Continuous
370
    -3
390
F
  0
LAYER
  5
77
330
2
100
AcDbSymbolTableRecord
100
AcDbLayerTableRecord
  2
OLCU
 70
     0
 62
   150
  6
Continuous
370
    -3
390
F
  0
LAYER
  5
78
330
2
100
AcDbSymbolTableRecord
100
AcDbLayerTableRecord
  2
METIN
 70
     0
 62
    96
  6
Continuous
370
    -3
390
F
  0
LAYER
  5
79
330
2
100
AcDbSymbolTableRecord
100
AcDbLayerTableRecord
  2
BALON
 70
     0
 62
     5
  6
Continuous
370
    -3
390
F
  0
LAYER
  5
7A
330
2
100
AcDbSymbolTableRecord
100
AcDbLayerTableRecord
  2
VURGU
 70
     0
 62
     7
  6
Continuous
370
    -3
390
F
  0
LAYER
  5
7B
330
2
100
AcDbSymbolTableRecord
100
AcDbLayerTableRecord
  2
SILIK
 70
     0
 62
     7
  6
Continuous
370
    -3
390
F
  0
LAYER
  5
7C
330
2
100
AcDbSymbolTableRecord
100
AcDbLayerTableRecord
  2
MODEL
 70
     0
 62
     7
  6
Continuous
370
    -3
390
F
  0
LAYER
  5
7D
330
2
100
AcDbSymbolTableRecord
100
AcDbLayerTableRecord
  2
DETAYLANDıRMA
 70
     0
 62
   190
  6
Continuous
370
    -3
390
F
  0
LAYER
  5
7E
330
2
100
AcDbSymbolTableRecord
100
AcDbLayerTableRecord
  2
TOLERANS
 70
     0
 62
   230
  6
Continuous
370
    -3
390
F
  0
LAYER
  5
7F
330
2
100
AcDbSymbolTableRecord
100
AcDbLayerTableRecord
  2
MERKEZ_CIZGILERI
 70
     0
 62
    30
  6
Continuous
370
    -3
390
F
  0
LAYER
  5
80
330
2
100
AcDbSymbolTableRecord
100
AcDbLayerTableRecord
  2
KESIT-DETAY_CIZGILERI
 70
     0
 62
     7
  6
Continuous
370
    -3
390
F
  0
LAYER
  5
81
330
2
100
AcDbSymbolTableRecord
100
AcDbLayerTableRecord
  2
\U+041E\U+0421\U+0415\U+0412\U+042B\U+0415
 70
     0
 62
     7
  6
Continuous
370
    -3
390
F
  0
LAYER
  5
82
330
2
100
AcDbSymbolTableRecord
100
AcDbLayerTableRecord
  2
\U+0412\U+041E\U+0414\U+042F\U+041D\U+042B\U+0415_\U+0417\U+041D\U+0410\U+041A\U+0418
 70
     0
 62
    11
  6
Continuous
370
    -3
390
F
  0
ENDTAB
  0
TABLE
  2
STYLE
  5
3
330
0
100
AcDbSymbolTable
 70
     1
  0
STYLE
  5
11
330
3
100
AcDbSymbolTableRecord
100
AcDbTextStyleTableRecord
  2
Standard
 70
     0
 40
0.0
 41
1.0
 50
0.0
 71
     0
 42
3.5
  3
txt
  4

  0
ENDTAB
  0
TABLE
  2
VIEW
  5
6
330
0
100
AcDbSymbolTable
 70
     0
  0
ENDTAB
  0
TABLE
  2
UCS
  5
7
330
0
100
AcDbSymbolTable
 70
     0
  0
ENDTAB
  0
TABLE
  2
APPID
  5
9
330
0
100
AcDbSymbolTable
 70
     1
  0
APPID
  5
12
330
9
100
AcDbSymbolTableRecord
100
AcDbRegAppTableRecord
  2
ACAD
 70
     0
  0
ENDTAB
  0
TABLE
  2
DIMSTYLE
  5
A
330
0
100
AcDbSymbolTable
 70
     1
100
AcDbDimStyleTable
  0
DIMSTYLE
105
27
330
A
100
AcDbSymbolTableRecord
100
AcDbDimStyleTableRecord
  2
ISO-25
 70
     0
 41
2.5
 42
0.625
 43
3.75
 44
1.25
 73
     0
 74
     0
 77
     1
 78
     8
140
2.5
141
2.5
143
0.0393700787
147
0.625
171
     3
172
     1
178
     0
271
     2
272
     2
274
     3
278
    44
283
     0
284
     8
340
11
  0
ENDTAB
  0
TABLE
  2
BLOCK_RECORD
  5
1
330
0
100
AcDbSymbolTable
 70
     5
  0
BLOCK_RECORD
  5
1F
330
1
100
AcDbSymbolTableRecord
100
AcDbBlockTableRecord
  2
*Model_Space
340
22
  0
BLOCK_RECORD
  5
1B
330
1
100
AcDbSymbolTableRecord
100
AcDbBlockTableRecord
  2
*Paper_Space
340
1E
  0
BLOCK_RECORD
  5
23
330
1
100
AcDbSymbolTableRecord
100
AcDbBlockTableRecord
  2
*Paper_Space0
340
26
  0
BLOCK_RECORD
  5
A5
330
1
100
AcDbSymbolTableRecord
100
AcDbBlockTableRecord
  2
SW_CENTERMARKSYMBOL_0
340
0
102
{BLKREFS
331
B0
102
}
  0
BLOCK_RECORD
  5
C1
330
1
100
AcDbSymbolTableRecord
100
AcDbBlockTableRecord
  2
SW_CENTERMARKSYMBOL_1
340
0
102
{BLKREFS
331
CC
102
}
  0
BLOCK_RECORD
  5
DE
330
1
100
AcDbSymbolTableRecord
100
AcDbBlockTableRecord
  2
SW_CENTERMARKSYMBOL_2
340
0
102
{BLKREFS
331
E9
102
}
  0
BLOCK_RECORD
  5
F9
330
1
100
AcDbSymbolTableRecord
100
AcDbBlockTableRecord
  2
SW_CENTERMARKSYMBOL_3
340
0
102
{BLKREFS
331
104
102
}
  0
ENDTAB
  0
ENDSEC
  0
SECTION
  2
BLOCKS
  0
BLOCK
  5
20
330
1F
100
AcDbEntity
  8
0
100
AcDbBlockBegin
  2
*Model_Space
 70
     0
 10
0.0
 20
0.0
 30
0.0
  3
*Model_Space
  1

  0
ENDBLK
  5
21
330
1F
100
AcDbEntity
  8
0
100
AcDbBlockEnd
  0
BLOCK
  5
1C
330
1B
100
AcDbEntity
 67
     1
  8
0
100
AcDbBlockBegin
  2
*Paper_Space
 70
     0
 10
0.0
 20
0.0
 30
0.0
  3
*Paper_Space
  1

  0
ENDBLK
  5
1D
330
1B
100
AcDbEntity
 67
     1
  8
0
100
AcDbBlockEnd
  0
BLOCK
  5
24
330
23
100
AcDbEntity
  8
0
100
AcDbBlockBegin
  2
*Paper_Space0
 70
     0
 10
0.0
 20
0.0
 30
0.0
  3
*Paper_Space0
  1

  0
ENDBLK
  5
25
330
23
100
AcDbEntity
  8
0
100
AcDbBlockEnd
  0
BLOCK
  5
A6
330
A5
100
AcDbEntity
  8
0
100
AcDbBlockBegin
  2
SW_CENTERMARKSYMBOL_0
 70
     0
 10
0.0
 20
0.0
 30
0.0
  3
SW_CENTERMARKSYMBOL_0
  1

  0
LINE
  5
A8
330
A5
100
AcDbEntity
  8
FORMAT
 62
     0
100
AcDbLine
 10
0.0
 20
0.0
 30
0.0
 11
0.0
 21
2.5
 31
0.0
  0
LINE
  5
A9
330
A5
100
AcDbEntity
  8
FORMAT
 62
     0
100
AcDbLine
 10
0.0
 20
0.0
 30
0.0
 11
-2.5
 21
0.0
 31
0.0
  0
LINE
  5
AA
330
A5
100
AcDbEntity
  8
FORMAT
 62
     0
100
AcDbLine
 10
0.0
 20
0.0
 30
0.0
 11
0.0
 21
-2.5
 31
0.0
  0
LINE
  5
AB
330
A5
100
AcDbEntity
  8
FORMAT
 62
     0
100
AcDbLine
 10
0.0
 20
0.0
 30
0.0
 11
2.5
 21
0.0
 31
0.0
  0
LINE
  5
AC
330
A5
100
AcDbEntity
  8
FORMAT
 62
     0
100
AcDbLine
 10
0.0
 20
5.0
 30
0.0
 11
0.0
 21
111.0
 31
0.0
  0
LINE
  5
AD
330
A5
100
AcDbEntity
  8
FORMAT
 62
     0
100
AcDbLine
 10
-5.0
 20
0.0
 30
0.0
 11
-111.0
 21
0.0
 31
0.0
  0
LINE
  5
AE
330
A5
100
AcDbEntity
  8
FORMAT
 62
     0
100
AcDbLine
 10
0.0
 20
-5.0
 30
0.0
 11
0.0
 21
-111.0
 31
0.0
  0
LINE
  5
AF
330
A5
100
AcDbEntity
  8
FORMAT
 62
     0
100
AcDbLine
 10
5.0
 20
0.0
 30
0.0
 11
111.0
 21
0.0
 31
0.0
  0
ENDBLK
  5
A7
330
A5
100
AcDbEntity
  8
0
100
AcDbBlockEnd
  0
BLOCK
  5
C2
330
C1
100
AcDbEntity
  8
0
100
AcDbBlockBegin
  2
SW_CENTERMARKSYMBOL_1
 70
     0
 10
0.0
 20
0.0
 30
0.0
  3
SW_CENTERMARKSYMBOL_1
  1

  0
LINE
  5
C4
330
C1
100
AcDbEntity
  8
FORMAT
 62
     0
100
AcDbLine
 10
0.0
 20
0.0
 30
0.0
 11
0.0
 21
2.5
 31
0.0
  0
LINE
  5
C5
330
C1
100
AcDbEntity
  8
FORMAT
 62
     0
100
AcDbLine
 10
0.0
 20
0.0
 30
0.0
 11
-2.5
 21
0.0
 31
0.0
  0
LINE
  5
C6
330
C1
100
AcDbEntity
  8
FORMAT
 62
     0
100
AcDbLine
 10
0.0
 20
0.0
 30
0.0
 11
0.0
 21
-2.5
 31
0.0
  0
LINE
  5
C7
330
C1
100
AcDbEntity
  8
FORMAT
 62
     0
100
AcDbLine
 10
0.0
 20
0.0
 30
0.0
 11
2.5
 21
0.0
 31
0.0
  0
LINE
  5
C8
330
C1
100
AcDbEntity
  8
FORMAT
 62
     0
100
AcDbLine
 10
0.0
 20
5.0
 30
0.0
 11
0.0
 21
111.0
 31
0.0
  0
LINE
  5
C9
330
C1
100
AcDbEntity
  8
FORMAT
 62
     0
100
AcDbLine
 10
-5.0
 20
0.0
 30
0.0
 11
-111.0
 21
0.0
 31
0.0
  0
LINE
  5
CA
330
C1
100
AcDbEntity
  8
FORMAT
 62
     0
100
AcDbLine
 10
0.0
 20
-5.0
 30
0.0
 11
0.0
 21
-111.0
 31
0.0
  0
LINE
  5
CB
330
C1
100
AcDbEntity
  8
FORMAT
 62
     0
100
AcDbLine
 10
5.0
 20
0.0
 30
0.0
 11
111.0
 21
0.0
 31
0.0
  0
ENDBLK
  5
C3
330
C1
100
AcDbEntity
  8
0
100
AcDbBlockEnd
  0
BLOCK
  5
DF
330
DE
100
AcDbEntity
  8
0
100
AcDbBlockBegin
  2
SW_CENTERMARKSYMBOL_2
 70
     0
 10
0.0
 20
0.0
 30
0.0
  3
SW_CENTERMARKSYMBOL_2
  1

  0
LINE
  5
E1
330
DE
100
AcDbEntity
  8
FORMAT
 62
     0
100
AcDbLine
 10
0.0
 20
0.0
 30
0.0
 11
0.0
 21
2.5
 31
0.0
  0
LINE
  5
E2
330
DE
100
AcDbEntity
  8
FORMAT
 62
     0
100
AcDbLine
 10
0.0
 20
0.0
 30
0.0
 11
-2.5
 21
0.0
 31
0.0
  0
LINE
  5
E3
330
DE
100
AcDbEntity
  8
FORMAT
 62
     0
100
AcDbLine
 10
0.0
 20
0.0
 30
0.0
 11
0.0
 21
-2.5
 31
0.0
  0
LINE
  5
E4
330
DE
100
AcDbEntity
  8
FORMAT
 62
     0
100
AcDbLine
 10
0.0
 20
0.0
 30
0.0
 11
2.5
 21
0.0
 31
0.0
  0
LINE
  5
E5
330
DE
100
AcDbEntity
  8
FORMAT
 62
     0
100
AcDbLine
 10
0.0
 20
5.0
 30
0.0
 11
0.0
 21
111.0
 31
0.0
  0
LINE
  5
E6
330
DE
100
AcDbEntity
  8
FORMAT
 62
     0
100
AcDbLine
 10
-5.0
 20
0.0
 30
0.0
 11
-111.0
 21
0.0
 31
0.0
  0
LINE
  5
E7
330
DE
100
AcDbEntity
  8
FORMAT
 62
     0
100
AcDbLine
 10
0.0
 20
-5.0
 30
0.0
 11
0.0
 21
-111.0
 31
0.0
  0
LINE
  5
E8
330
DE
100
AcDbEntity
  8
FORMAT
 62
     0
100
AcDbLine
 10
5.0
 20
0.0
 30
0.0
 11
111.0
 21
0.0
 31
0.0
  0
ENDBLK
  5
E0
330
DE
100
AcDbEntity
  8
0
100
AcDbBlockEnd
  0
BLOCK
  5
FA
330
F9
100
AcDbEntity
  8
0
100
AcDbBlockBegin
  2
SW_CENTERMARKSYMBOL_3
 70
     0
 10
0.0
 20
0.0
 30
0.0
  3
SW_CENTERMARKSYMBOL_3
  1

  0
LINE
  5
FC
330
F9
100
AcDbEntity
  8
FORMAT
 62
     0
100
AcDbLine
 10
0.0
 20
0.0
 30
0.0
 11
0.0
 21
2.5
 31
0.0
  0
LINE
  5
FD
330
F9
100
AcDbEntity
  8
FORMAT
 62
     0
100
AcDbLine
 10
0.0
 20
0.0
 30
0.0
 11
-2.5
 21
0.0
 31
0.0
  0
LINE
  5
FE
330
F9
100
AcDbEntity
  8
FORMAT
 62
     0
100
AcDbLine
 10
0.0
 20
0.0
 30
0.0
 11
0.0
 21
-2.5
 31
0.0
  0
LINE
  5
FF
330
F9
100
AcDbEntity
  8
FORMAT
 62
     0
100
AcDbLine
 10
0.0
 20
0.0
 30
0.0
 11
2.5
 21
0.0
 31
0.0
  0
LINE
  5
100
330
F9
100
AcDbEntity
  8
FORMAT
 62
     0
100
AcDbLine
 10
0.0
 20
5.0
 30
0.0
 11
0.0
 21
111.0
 31
0.0
  0
LINE
  5
101
330
F9
100
AcDbEntity
  8
FORMAT
 62
     0
100
AcDbLine
 10
-5.0
 20
0.0
 30
0.0
 11
-111.0
 21
0.0
 31
0.0
  0
LINE
  5
102
330
F9
100
AcDbEntity
  8
FORMAT
 62
     0
100
AcDbLine
 10
0.0
 20
-5.0
 30
0.0
 11
0.0
 21
-111.0
 31
0.0
  0
LINE
  5
103
330
F9
100
AcDbEntity
  8
FORMAT
 62
     0
100
AcDbLine
 10
5.0
 20
0.0
 30
0.0
 11
111.0
 21
0.0
 31
0.0
  0
ENDBLK
  5
FB
330
F9
100
AcDbEntity
  8
0
100
AcDbBlockEnd
  0
ENDSEC
  0
SECTION
  2
ENTITIES
  0
LINE
  5
83
330
1F
100
AcDbEntity
  8
0
  6
Continuous
 62
     7
370
    25
100
AcDbLine
 10
9.3054276901
 20
65.9200564222
 30
0.0
 11
9.3054276901
 21
-31.5799435778
 31
0.0
  0
LINE
  5
84
330
1F
100
AcDbEntity
  8
0
  6
Continuous
 62
     7
370
    25
100
AcDbLine
 10
226.3054276901
 20
-31.5799435778
 30
0.0
 11
226.3054276901
 21
65.9200564222
 31
0.0
  0
ARC
  5
85
330
1F
100
AcDbEntity
  8
0
  6
Continuous
 62
     7
370
    25
100
AcDbCircle
 10
230.8054276901
 20
65.9200564222
 30
0.0
 40
4.499999999999972
100
AcDbArc
 50
90.0
 51
180.0
  0
ARC
  5
86
330
1F
100
AcDbEntity
  8
0
  6
Continuous
 62
     7
370
    25
100
AcDbCircle
 10
230.8054276901
 20
65.9200564222
 30
0.0
 40
221.5
100
AcDbArc
 50
90.0
 51
180.0
  0
LINE
  5
87
330
1F
100
AcDbEntity
  8
0
  6
Continuous
 62
     7
370
    25
100
AcDbLine
 10
328.3054276901
 20
287.4200564222
 30
0.0
 11
230.8054276901
 21
287.4200564222
 31
0.0
  0
LINE
  5
88
330
1F
100
AcDbEntity
  8
0
  6
Continuous
 62
     7
370
    25
100
AcDbLine
 10
230.8054276901
 20
70.4200564222
 30
0.0
 11
328.3054276901
 21
70.4200564222
 31
0.0
  0
CIRCLE
  5
89
330
1F
100
AcDbEntity
  8
0
  6
Continuous
 62
     7
370
    25
100
AcDbCircle
 10
117.8054276901
 20
-21.5799435778
 30
0.0
 40
5.0
  0
CIRCLE
  5
8A
330
1F
100
AcDbEntity
  8
0
  6
Continuous
 62
     7
370
    25
100
AcDbCircle
 10
117.8054276901
 20
-21.5799435778
 30
0.0
 40
7.0
  0
CIRCLE
  5
8B
330
1F
100
AcDbEntity
  8
0
  6
Continuous
 62
     7
370
    25
100
AcDbCircle
 10
318.3054276901
 20
178.9200564222
 30
0.0
 40
7.000000000000057
  0
CIRCLE
  5
8C
330
1F
100
AcDbEntity
  8
0
  6
Continuous
 62
     7
370
    25
100
AcDbCircle
 10
318.3054276901
 20
178.9200564222
 30
0.0
 40
5.000000000000057
  0
LINE
  5
8D
330
1F
100
AcDbEntity
  8
0
  6
Continuous
 62
     7
370
    25
100
AcDbLine
 10
117.8054276901
 20
-31.5799435778
 30
0.0
 11
226.3054276901
 21
-31.5799435778
 31
0.0
  0
LINE
  5
8E
330
1F
100
AcDbEntity
  8
0
  6
Continuous
 62
     7
370
    25
100
AcDbLine
 10
9.3054276901
 20
-31.5799435778
 30
0.0
 11
117.8054276901
 21
-31.5799435778
 31
0.0
  0
LINE
  5
8F
330
1F
100
AcDbEntity
  8
0
  6
Continuous
 62
     7
370
    25
100
AcDbLine
 10
328.3054276901
 20
178.9200564222
 30
0.0
 11
328.3054276901
 21
70.4200564222
 31
0.0
  0
LINE
  5
90
330
1F
100
AcDbEntity
  8
0
  6
Continuous
 62
     7
370
    25
100
AcDbLine
 10
328.3054276901
 20
287.4200564222
 30
0.0
 11
328.3054276901
 21
178.9200564222
 31
0.0
  0
LINE
  5
91
330
1F
100
AcDbEntity
  8
0
  6
Continuous
 62
     1
370
    25
100
AcDbLine
 10
117.8054276901
 20
65.9200564222
 30
0.0
 11
226.3054276901
 21
65.9200564222
 31
0.0
  0
LINE
  5
92
330
1F
100
AcDbEntity
  8
0
  6
Continuous
 62
     1
370
    25
100
AcDbLine
 10
9.3054276901
 20
65.9200564222
 30
0.0
 11
117.8054276901
 21
65.9200564222
 31
0.0
  0
LINE
  5
93
330
1F
100
AcDbEntity
  8
0
  6
Continuous
 62
     1
370
    25
100
AcDbLine
 10
230.8054276901
 20
178.9200564222
 30
0.0
 11
230.8054276901
 21
70.4200564222
 31
0.0
  0
LINE
  5
94
330
1F
100
AcDbEntity
  8
0
  6
Continuous
 62
     1
370
    25
100
AcDbLine
 10
230.8054276901
 20
287.4200564222
 30
0.0
 11
230.8054276901
 21
178.9200564222
 31
0.0
  0
LINE
  5
95
330
1F
100
AcDbEntity
  8
0
  6
Continuous
 62
     7
370
    25
100
AcDbLine
 10
-346.4414169663
 20
185.9200564222
 30
0.0
 11
-364.16692379
 21
185.9200564222
 31
0.0
  0
LINE
  5
96
330
1F
100
AcDbEntity
  8
0
  6
Continuous
 62
     7
370
    25
100
AcDbLine
 10
-364.16692379
 20
171.9200564222
 30
0.0
 11
-346.4465886024
 21
171.9200564222
 31
0.0
  0
LINE
  5
97
330
1F
100
AcDbEntity
  8
0
  6
Continuous
 62
     7
370
    25
100
AcDbLine
 10
-346.66692379
 20
171.9200564222
 30
0.0
 11
-346.66692379
 21
65.9200564222
 31
0.0
  0
LINE
  5
98
330
1F
100
AcDbEntity
  8
0
  6
Continuous
 62
     7
370
    25
100
AcDbLine
 10
-129.66692379
 20
65.9200564222
 30
0.0
 11
-129.66692379
 21
178.9200564222
 31
0.0
  0
LINE
  5
99
330
1F
100
AcDbEntity
  8
0
  6
Continuous
 62
     7
370
    25
100
AcDbLine
 10
-346.66692379
 20
-28.5799435778
 30
0.0
 11
-346.66692379
 21
-31.5799435778
 31
0.0
  0
LINE
  5
9A
330
1F
100
AcDbEntity
  8
0
  6
Continuous
 62
     7
370
    25
100
AcDbLine
 10
-346.66692379
 20
65.9200564222
 30
0.0
 11
-346.66692379
 21
-14.6661303405
 31
0.0
  0
LINE
  5
9B
330
1F
100
AcDbEntity
  8
0
  6
Continuous
 62
     7
370
    25
100
AcDbLine
 10
-129.66692379
 20
-31.5799435778
 30
0.0
 11
-129.66692379
 21
65.9200564222
 31
0.0
  0
LINE
  5
9C
330
1F
100
AcDbEntity
  8
0
  6
Continuous
 62
     7
370
    25
100
AcDbLine
 10
-346.6614384078
 20
-14.5799435778
 30
0.0
 11
-364.16692379
 21
-14.5799435778
 31
0.0
  0
LINE
  5
9D
330
1F
100
AcDbEntity
  8
0
  6
Continuous
 62
     7
370
    25
100
AcDbLine
 10
-364.16692379
 20
-28.5799435778
 30
0.0
 11
-346.66692379
 21
-28.5799435778
 31
0.0
  0
CIRCLE
  5
9E
330
1F
100
AcDbEntity
  8
0
  6
Continuous
 62
     7
370
    25
100
AcDbCircle
 10
-238.16692379
 20
178.9200564222
 30
0.0
 40
108.5
  0
CIRCLE
  5
9F
330
1F
100
AcDbEntity
  8
0
  6
Continuous
 62
     7
370
    25
100
AcDbCircle
 10
-238.16692379
 20
178.9200564222
 30
0.0
 40
90.0
  0
LINE
  5
A0
330
1F
100
AcDbEntity
  8
0
  6
Continuous
 62
     7
370
    25
100
AcDbLine
 10
-364.16692379
 20
185.9200564222
 30
0.0
 11
-364.16692379
 21
171.9200564222
 31
0.0
  0
SPLINE
  5
A1
330
1F
100
AcDbEntity
  8
0
  6
Continuous
 62
     7
370
    25
100
AcDbSpline
210
0.0
220
0.0
230
1.0
 70
     8
 71
     3
 72
    17
 73
    13
 74
     0
 42
0.00000001
 43
0.00000001
 40
0.0
 40
0.0
 40
0.0
 40
0.0
 40
0.1072186436203292
 40
0.2144319072014153
 40
0.3217849007060795
 40
0.4292301341484744
 40
0.5365231098621922
 40
0.6436569174184534
 40
0.750873044798806
 40
0.8582843471327729
 40
0.9656994504000781
 40
1.0
 40
1.0
 40
1.0
 40
1.0
 10
-346.6669237899788
 20
-28.57994357775913
 30
0.0
 10
-346.6617993285783
 20
-28.50271265461464
 30
0.0
 10
-346.6515506629136
 20
-28.34825468363488
 30
0.0
 10
-346.5802802679159
 20
-27.14440514158349
 30
0.0
 10
-346.5009450396992
 20
-25.37018140341371
 30
0.0
 10
-346.443776139984
 20
-23.15260567381831
 30
0.0
 10
-346.4352511708365
 20
-20.76165070252332
 30
0.0
 10
-346.4783546327841
 20
-18.46797259229516
 30
0.0
 10
-346.5553758816228
 20
-16.50949127655796
 30
0.0
 10
-346.6284740049837
 20
-15.17541586630828
 30
0.0
 10
-346.6693798524981
 20
-14.54135873751243
 30
0.0
 10
-346.6629695611028
 20
-14.64181590526094
 30
0.0
 10
-346.6614180280611
 20
-14.66613034050723
 30
0.0
  0
LINE
  5
A2
330
1F
100
AcDbEntity
  8
0
  6
Continuous
 62
     7
370
    25
100
AcDbLine
 10
-346.66692379
 20
-31.5799435778
 30
0.0
 11
-129.66692379
 21
-31.5799435778
 31
0.0
  0
LINE
  5
A3
330
1F
100
AcDbEntity
  8
0
  6
Continuous
 62
     7
370
    25
100
AcDbLine
 10
-364.16692379
 20
-14.5799435778
 30
0.0
 11
-364.16692379
 21
-28.5799435778
 31
0.0
  0
LINE
  5
A4
330
1F
100
AcDbEntity
  8
0
  6
Continuous
 62
     1
370
    25
100
AcDbLine
 10
-346.66692379
 20
65.9200564222
 30
0.0
 11
-129.66692379
 21
65.9200564222
 31
0.0
  0
INSERT
  5
B0
330
1F
100
AcDbEntity
  8
FORMAT
 62
     7
100
AcDbBlockReference
  2
SW_CENTERMARKSYMBOL_0
 10
-238.16692379
 20
178.9200564222
 30
0.0
  0
LINE
  5
B1
330
1F
100
AcDbEntity
  8
0
  6
Continuous
 62
     7
370
    25
100
AcDbLine
 10
124.8054276901
 20
619.1504982684
 30
0.0
 11
124.8054276901
 21
636.870833456
 31
0.0
  0
LINE
  5
B2
330
1F
100
AcDbEntity
  8
0
  6
Continuous
 62
     7
370
    25
100
AcDbLine
 10
110.8054276901
 20
636.870833456
 30
0.0
 11
110.8054276901
 21
619.1453266323
 31
0.0
  0
LINE
  5
B3
330
1F
100
AcDbEntity
  8
0
  6
Continuous
 62
     7
370
    25
100
AcDbLine
 10
230.8054276901
 20
619.370833456
 30
0.0
 11
124.8054276901
 21
619.370833456
 31
0.0
  0
LINE
  5
B4
330
1F
100
AcDbEntity
  8
0
  6
Continuous
 62
     7
370
    25
100
AcDbLine
 10
117.8054276901
 20
402.370833456
 30
0.0
 11
230.8054276901
 21
402.370833456
 31
0.0
  0
LINE
  5
B5
330
1F
100
AcDbEntity
  8
0
  6
Continuous
 62
     7
370
    25
100
AcDbLine
 10
311.3054276901
 20
619.370833456
 30
0.0
 11
230.8054276901
 21
619.370833456
 31
0.0
  0
LINE
  5
B6
330
1F
100
AcDbEntity
  8
0
  6
Continuous
 62
     7
370
    25
100
AcDbLine
 10
328.3054276901
 20
619.370833456
 30
0.0
 11
325.2192409274
 21
619.370833456
 31
0.0
  0
LINE
  5
B7
330
1F
100
AcDbEntity
  8
0
  6
Continuous
 62
     7
370
    25
100
AcDbLine
 10
230.8054276901
 20
402.370833456
 30
0.0
 11
328.3054276901
 21
402.370833456
 31
0.0
  0
LINE
  5
B8
330
1F
100
AcDbEntity
  8
0
  6
Continuous
 62
     7
370
    25
100
AcDbLine
 10
325.3054276901
 20
619.3653480738
 30
0.0
 11
325.3054276901
 21
636.870833456
 31
0.0
  0
LINE
  5
B9
330
1F
100
AcDbEntity
  8
0
  6
Continuous
 62
     7
370
    25
100
AcDbLine
 10
311.3054276901
 20
636.870833456
 30
0.0
 11
311.3054276901
 21
619.370833456
 31
0.0
  0
CIRCLE
  5
BA
330
1F
100
AcDbEntity
  8
0
  6
Continuous
 62
     7
370
    25
100
AcDbCircle
 10
117.8054276901
 20
510.870833456
 30
0.0
 40
90.00000000000011
  0
CIRCLE
  5
BB
330
1F
100
AcDbEntity
  8
0
  6
Continuous
 62
     7
370
    25
100
AcDbCircle
 10
117.8054276901
 20
510.870833456
 30
0.0
 40
108.5
  0
LINE
  5
BC
330
1F
100
AcDbEntity
  8
0
  6
Continuous
 62
     7
370
    25
100
AcDbLine
 10
124.8054276901
 20
636.870833456
 30
0.0
 11
110.8054276901
 21
636.870833456
 31
0.0
  0
SPLINE
  5
BD
330
1F
100
AcDbEntity
  8
0
  6
Continuous
 62
     7
370
    25
100
AcDbSpline
210
0.0
220
0.0
230
1.0
 70
     8
 71
     3
 72
    17
 73
    13
 74
     0
 42
0.00000001
 43
0.00000001
 40
0.0
 40
0.0
 40
0.0
 40
0.0
 40
0.1072186436203311
 40
0.2144319072014166
 40
0.3217849007060822
 40
0.429230134148476
 40
0.5365231098621938
 40
0.6436569174184553
 40
0.7508730447988076
 40
0.8582843471327761
 40
0.9656994504000809
 40
1.0
 40
1.0
 40
1.0
 40
1.0
 10
311.3054276901331
 20
619.3708334559864
 30
0.0
 10
311.3826586132776
 20
619.3657089945859
 30
0.0
 10
311.5371165842573
 20
619.3554603289213
 30
0.0
 10
312.7409661263088
 20
619.2841899339235
 30
0.0
 10
314.5151898644785
 20
619.2048547057068
 30
0.0
 10
316.732765594074
 20
619.1476858059916
 30
0.0
 10
319.123720565369
 20
619.1391608368442
 30
0.0
 10
321.4173986755972
 20
619.1822642987918
 30
0.0
 10
323.3758799913344
 20
619.2592855476304
 30
0.0
 10
324.709955401584
 20
619.3323836709912
 30
0.0
 10
325.3440125303799
 20
619.3732895185057
 30
0.0
 10
325.2435553626313
 20
619.3668792271104
 30
0.0
 10
325.2192409273851
 20
619.3653276940687
 30
0.0
  0
LINE
  5
BE
330
1F
100
AcDbEntity
  8
0
  6
Continuous
 62
     7
370
    25
100
AcDbLine
 10
328.3054276901
 20
619.370833456
 30
0.0
 11
328.3054276901
 21
402.370833456
 31
0.0
  0
LINE
  5
BF
330
1F
100
AcDbEntity
  8
0
  6
Continuous
 62
     7
370
    25
100
AcDbLine
 10
325.3054276901
 20
636.870833456
 30
0.0
 11
311.3054276901
 21
636.870833456
 31
0.0
  0
LINE
  5
C0
330
1F
100
AcDbEntity
  8
0
  6
Continuous
 62
     1
370
    25
100
AcDbLine
 10
230.8054276901
 20
619.370833456
 30
0.0
 11
230.8054276901
 21
402.370833456
 31
0.0
  0
INSERT
  5
CC
330
1F
100
AcDbEntity
  8
FORMAT
 62
     7
100
AcDbBlockReference
  2
SW_CENTERMARKSYMBOL_1
 10
117.8054276901
 20
510.870833456
 30
0.0
  0
LINE
  5
CD
330
1F
100
AcDbEntity
  8
0
  6
Continuous
 62
     7
370
    25
100
AcDbLine
 10
480.1306956346
 20
65.9200564222
 30
0.0
 11
480.1306956346
 21
-31.5799435778
 31
0.0
  0
LINE
  5
CE
330
1F
100
AcDbEntity
  8
0
  6
Continuous
 62
     7
370
    25
100
AcDbLine
 10
697.1306956346
 20
-14.6661303405
 30
0.0
 11
697.1306956346
 21
65.9200564222
 31
0.0
  0
LINE
  5
CF
330
1F
100
AcDbEntity
  8
0
  6
Continuous
 62
     7
370
    25
100
AcDbLine
 10
697.1306956346
 20
-31.5799435778
 30
0.0
 11
697.1306956346
 21
-28.5799435778
 31
0.0
  0
LINE
  5
D0
330
1F
100
AcDbEntity
  8
0
  6
Continuous
 62
     7
370
    25
100
AcDbLine
 10
697.1306956346
 20
65.9200564222
 30
0.0
 11
697.1306956346
 21
178.9200564222
 31
0.0
  0
LINE
  5
D1
330
1F
100
AcDbEntity
  8
0
  6
Continuous
 62
     7
370
    25
100
AcDbLine
 10
480.1306956346
 20
178.9200564222
 30
0.0
 11
480.1306956346
 21
65.9200564222
 31
0.0
  0
LINE
  5
D2
330
1F
100
AcDbEntity
  8
0
  6
Continuous
 62
     7
370
    25
100
AcDbLine
 10
697.1306956346
 20
-28.5799435778
 30
0.0
 11
714.6306956346
 21
-28.5799435778
 31
0.0
  0
LINE
  5
D3
330
1F
100
AcDbEntity
  8
0
  6
Continuous
 62
     7
370
    25
100
AcDbLine
 10
714.6306956346
 20
-14.5799435778
 30
0.0
 11
697.1252102524
 21
-14.5799435778
 31
0.0
  0
LINE
  5
D4
330
1F
100
AcDbEntity
  8
0
  6
Continuous
 62
     7
370
    25
100
AcDbLine
 10
697.1306956346
 20
171.9200564222
 30
0.0
 11
714.6306956346
 21
171.9200564222
 31
0.0
  0
LINE
  5
D5
330
1F
100
AcDbEntity
  8
0
  6
Continuous
 62
     7
370
    25
100
AcDbLine
 10
714.6306956346
 20
185.9200564222
 30
0.0
 11
696.9051888109
 21
185.9200564222
 31
0.0
  0
LINE
  5
D6
330
1F
100
AcDbEntity
  8
0
  6
Continuous
 62
     7
370
    25
100
AcDbLine
 10
480.1306956346
 20
-31.5799435778
 30
0.0
 11
697.1306956346
 21
-31.5799435778
 31
0.0
  0
ARC
  5
D7
330
1F
100
AcDbEntity
  8
0
  6
Continuous
 62
     7
370
    25
100
AcDbCircle
 10
805.5053722386
 20
-21.580151496
 30
0.0
 40
108.6004954786664
100
AcDbArc
 50
176.3498110419
 51
183.6955333794
  0
ARC
  5
D8
330
1F
100
AcDbEntity
  8
0
  6
Continuous
 62
     7
370
    25
100
AcDbCircle
 10
588.6306956346
 20
178.9200564222
 30
0.0
 40
108.5000000000001
100
AcDbArc
 50
0.0
 51
180.0
  0
LINE
  5
D9
330
1F
100
AcDbEntity
  8
0
  6
Continuous
 62
     7
370
    25
100
AcDbLine
 10
714.6306956346
 20
-21.5799435778
 30
0.0
 11
714.6306956346
 21
-14.5799435778
 31
0.0
  0
LINE
  5
DA
330
1F
100
AcDbEntity
  8
0
  6
Continuous
 62
     7
370
    25
100
AcDbLine
 10
714.6306956346
 20
-28.5799435778
 30
0.0
 11
714.6306956346
 21
-21.5799435778
 31
0.0
  0
LINE
  5
DB
330
1F
100
AcDbEntity
  8
0
  6
Continuous
 62
     7
370
    25
100
AcDbLine
 10
714.6306956346
 20
178.9200564222
 30
0.0
 11
714.6306956346
 21
185.9200564222
 31
0.0
  0
LINE
  5
DC
330
1F
100
AcDbEntity
  8
0
  6
Continuous
 62
     7
370
    25
100
AcDbLine
 10
714.6306956346
 20
171.9200564222
 30
0.0
 11
714.6306956346
 21
178.9200564222
 31
0.0
  0
LINE
  5
DD
330
1F
100
AcDbEntity
  8
0
  6
Continuous
 62
     1
370
    25
100
AcDbLine
 10
480.1306956346
 20
65.9200564222
 30
0.0
 11
697.1306956346
 21
65.9200564222
 31
0.0
  0
INSERT
  5
E9
330
1F
100
AcDbEntity
  8
FORMAT
 62
     7
100
AcDbBlockReference
  2
SW_CENTERMARKSYMBOL_2
 10
588.6306956346
 20
178.9200564222
 30
0.0
  0
LINE
  5
EA
330
1F
100
AcDbEntity
  8
0
  6
Continuous
 62
     7
370
    25
100
AcDbLine
 10
117.8054276901
 20
-391.1059606665
 30
0.0
 11
230.8054276901
 21
-391.1059606665
 31
0.0
  0
LINE
  5
EB
330
1F
100
AcDbEntity
  8
0
  6
Continuous
 62
     7
370
    25
100
AcDbLine
 10
230.8054276901
 20
-174.1059606665
 30
0.0
 11
117.8054276901
 21
-174.1059606665
 31
0.0
  0
LINE
  5
EC
330
1F
100
AcDbEntity
  8
0
  6
Continuous
 62
     7
370
    25
100
AcDbLine
 10
328.3054276901
 20
-174.1059606665
 30
0.0
 11
230.8054276901
 21
-174.1059606665
 31
0.0
  0
LINE
  5
ED
330
1F
100
AcDbEntity
  8
0
  6
Continuous
 62
     7
370
    25
100
AcDbLine
 10
325.2192409274
 20
-391.1059606665
 30
0.0
 11
328.3054276901
 21
-391.1059606665
 31
0.0
  0
LINE
  5
EE
330
1F
100
AcDbEntity
  8
0
  6
Continuous
 62
     7
370
    25
100
AcDbLine
 10
230.8054276901
 20
-391.1059606665
 30
0.0
 11
311.3054276901
 21
-391.1059606665
 31
0.0
  0
LINE
  5
EF
330
1F
100
AcDbEntity
  8
0
  6
Continuous
 62
     7
370
    25
100
AcDbLine
 10
311.3054276901
 20
-391.1059606665
 30
0.0
 11
311.3054276901
 21
-408.6059606665
 31
0.0
  0
LINE
  5
F0
330
1F
100
AcDbEntity
  8
0
  6
Continuous
 62
     7
370
    25
100
AcDbLine
 10
325.3054276901
 20
-408.6059606665
 30
0.0
 11
325.3054276901
 21
-391.1004752843
 31
0.0
  0
LINE
  5
F1
330
1F
100
AcDbEntity
  8
0
  6
Continuous
 62
     7
370
    25
100
AcDbLine
 10
110.8054276901
 20
-390.8804538428
 30
0.0
 11
110.8054276901
 21
-408.6059606665
 31
0.0
  0
LINE
  5
F2
330
1F
100
AcDbEntity
  8
0
  6
Continuous
 62
     7
370
    25
100
AcDbLine
 10
124.8054276901
 20
-408.6059606665
 30
0.0
 11
124.8054276901
 21
-391.1059606665
 31
0.0
  0
ARC
  5
F3
330
1F
100
AcDbEntity
  8
0
  6
Continuous
 62
     7
370
    25
100
AcDbCircle
 10
117.8054276901
 20
-282.6059606665
 30
0.0
 40
108.5000000000001
100
AcDbArc
 50
90.0
 51
270.0
  0
ARC
  5
F4
330
1F
100
AcDbEntity
  8
0
  6
Continuous
 62
     7
370
    25
100
AcDbCircle
 10
318.3052197718
 20
-499.4806372707
 30
0.0
 40
108.6004954788836
100
AcDbArc
 50
86.3498110419
 51
93.6955333794
  0
LINE
  5
F5
330
1F
100
AcDbEntity
  8
0
  6
Continuous
 62
     7
370
    25
100
AcDbLine
 10
328.3054276901
 20
-174.1059606665
 30
0.0
 11
328.3054276901
 21
-391.1059606665
 31
0.0
  0
LINE
  5
F6
330
1F
100
AcDbEntity
  8
0
  6
Continuous
 62
     7
370
    25
100
AcDbLine
 10
311.3054276901
 20
-408.6059606665
 30
0.0
 11
325.3054276901
 21
-408.6059606665
 31
0.0
  0
LINE
  5
F7
330
1F
100
AcDbEntity
  8
0
  6
Continuous
 62
     7
370
    25
100
AcDbLine
 10
110.8054276901
 20
-408.6059606665
 30
0.0
 11
124.8054276901
 21
-408.6059606665
 31
0.0
  0
LINE
  5
F8
330
1F
100
AcDbEntity
  8
0
  6
Continuous
 62
     1
370
    25
100
AcDbLine
 10
230.8054276901
 20
-174.1059606665
 30
0.0
 11
230.8054276901
 21
-391.1059606665
 31
0.0
  0
INSERT
  5
104
330
1F
100
AcDbEntity
  8
FORMAT
 62
     7
100
AcDbBlockReference
  2
SW_CENTERMARKSYMBOL_3
 10
117.8054276901
 20
-282.6059606665
 30
0.0
  0
LINE
  5
105
330
1F
100
AcDbEntity
  8
0
  6
Continuous
 62
     7
370
    25
100
AcDbLine
 10
638.4863237896
 20
-73.3513242872
 30
0.0
 11
569.5434126239
 21
-113.1512197385
 31
0.0
  0
LINE
  5
106
330
1F
100
AcDbEntity
  8
0
  6
Continuous
 62
     7
370
    25
100
AcDbLine
 10
678.0345951149
 20
-301.0838228751
 30
0.0
 11
746.9775062806
 21
-261.2839274238
 31
0.0
  0
LINE
  5
107
330
1F
100
AcDbEntity
  8
0
  6
Continuous
 62
     7
370
    25
100
AcDbLine
 10
435.3859375953
 20
-345.5136913679
 30
0.0
 11
435.3859375953
 21
-425.1264205268
 31
0.0
  0
LINE
  5
108
330
1F
100
AcDbEntity
  8
0
  6
Continuous
 62
     7
370
    25
100
AcDbLine
 10
652.3859375953
 20
-425.1264205268
 30
0.0
 11
652.3859375953
 21
-345.5136913679
 31
0.0
  0
LINE
  5
109
330
1F
100
AcDbEntity
  8
0
  6
Continuous
 62
     7
370
    25
100
AcDbLine
 10
612.5196792816
 20
-121.0934840866
 30
0.0
 11
600.0651083579
 21
-113.9036133331
 31
0.0
  0
LINE
  5
10A
330
1F
100
AcDbEntity
  8
0
  6
Continuous
 62
     7
370
    25
100
AcDbLine
 10
593.0656772295
 20
-126.0282974064
 30
0.0
 11
605.5195993338
 21
-133.2177936046
 31
0.0
  0
LINE
  5
10B
330
1F
100
AcDbEntity
  8
0
  6
Continuous
 62
     7
370
    25
100
AcDbLine
 10
470.7443917705
 20
-366.6546119326
 30
0.0
 11
458.29019873
 21
-359.4649593264
 31
0.0
  0
LINE
  5
10C
330
1F
100
AcDbEntity
  8
0
  6
Continuous
 62
     7
370
    25
100
AcDbLine
 10
451.2907676016
 20
-371.5896433998
 30
0.0
 11
463.7453724668
 21
-378.7795337473
 31
0.0
  0
SPLINE
  5
10D
330
1F
100
AcDbEntity
  8
0
  6
Continuous
 62
     7
370
    25
100
AcDbSpline
210
0.0
220
0.0
230
1.0
 70
     8
 71
     3
 72
    37
 73
    33
 74
     0
 42
0.00000001
 43
0.00000001
 40
0.0
 40
0.0
 40
0.0
 40
0.0
 40
0.01206917978331
 40
0.0477315632562582
 40
0.082251707509585
 40
0.1160567598495062
 40
0.149375730732235
 40
0.182412443993209
 40
0.2153406786435746
 40
0.2483019905709412
 40
0.2813868060728205
 40
0.3146599260468936
 40
0.3481739813298989
 40
0.3819510946144608
 40
0.4159863557256947
 40
0.4502520952783667
 40
0.4847029011502919
 40
0.5192811717794396
 40
0.5539217476327283
 40
0.5885397521194872
 40
0.6230792501435735
 40
0.6574988768426421
 40
0.6917778365726162
 40
0.7259214856964741
 40
0.7599661905623879
 40
0.7939831340381274
 40
0.8280807696052944
 40
0.8623683115666361
 40
0.8970059199136761
 40
0.9321976665138314
 40
0.9681788037916554
 40
1.0
 40
1.0
 40
1.0
 40
1.0
 10
652.3860610645191
 20
-345.5109744425482
 30
0.0
 10
652.3860352509791
 20
-345.5125662525371
 30
0.0
 10
652.3859331627976
 20
-345.5188615916194
 30
0.0
 10
652.3920879102379
 20
-345.3076242069726
 30
0.0
 10
652.4330787482152
 20
-344.7795150049008
 30
0.0
 10
652.5274844146631
 20
-343.9671022473716
 30
0.0
 10
652.6932984852358
 20
-342.8946364550084
 30
0.0
 10
652.9466931768445
 20
-341.5737352540204
 30
0.0
 10
653.3018081696664
 20
-340.021550033154
 30
0.0
 10
653.7705277688608
 20
-338.2567523721806
 30
0.0
 10
654.3620857935346
 20
-336.3012793987245
 30
0.0
 10
655.0827652513836
 20
-334.1798512047351
 30
0.0
 10
655.9357701515299
 20
-331.9195326575903
 30
0.0
 10
656.9209871306581
 20
-329.5495860178628
 30
0.0
 10
658.0345881440535
 20
-327.1015885786912
 30
0.0
 10
659.2688583490931
 20
-324.6089222810963
 30
0.0
 10
660.6121515030578
 20
-322.1060916560033
 30
0.0
 10
662.0489697268083
 20
-319.6279440847556
 30
0.0
 10
663.559917185255
 20
-317.2092342259934
 30
0.0
 10
665.1223691436631
 20
-314.8830973820017
 30
0.0
 10
666.7111075282719
 20
-312.6800163336423
 30
0.0
 10
668.2993291288635
 20
-310.6266086041243
 30
0.0
 10
669.8590248212472
 20
-308.7454746384169
 30
0.0
 10
671.3616533587083
 20
-307.0547426839776
 30
0.0
 10
672.7787801665039
 20
-305.5678021968378
 30
0.0
 10
674.0825316693386
 20
-304.2932935643212
 30
0.0
 10
675.2457210679491
 20
-303.2355305460055
 30
0.0
 10
676.2416853349602
 20
-302.3947351419292
 30
0.0
 10
677.047604626196
 20
-301.7653941293715
 30
0.0
 10
677.6334803026205
 20
-301.3432631856976
 30
0.0
 10
677.9864263088533
 20
-301.112277003196
 30
0.0
 10
678.0197687716064
 20
-301.0928039234672
 30
0.0
 10
678.0354171570643
 20
-301.0836647587959
 30
0.0
  0
SPLINE
  5
10E
330
1F
100
AcDbEntity
  8
0
  6
Continuous
 62
     7
370
    25
100
AcDbSpline
210
0.0
220
0.0
230
1.0
 70
     8
 71
     3
 72
    41
 73
    37
 74
     0
 42
0.00000001
 43
0.00000001
 40
0.0
 40
0.0
 40
0.0
 40
0.0
 40
0.0190006872972146
 40
0.0484865374666106
 40
0.0780345108926686
 40
0.107711106090147
 40
0.1374707356933327
 40
0.1672682872093868
 40
0.1970611113461822
 40
0.2268226594324822
 40
0.2565338541622021
 40
0.2861828475222823
 40
0.3157643147242418
 40
0.345278534732726
 40
0.374730415291481
 40
0.404128565242028
 40
0.4334844681733735
 40
0.4628117752021497
 40
0.4921257109235526
 40
0.5214425725713107
 40
0.5507779881560864
 40
0.580144768575067
 40
0.6095600589661538
 40
0.6390405512112141
 40
0.6686020112262154
 40
0.6982587173652138
 40
0.7280227770090081
 40
0.757903295633235
 40
0.7879053869498631
 40
0.8180290390520031
 40
0.8482678940637274
 40
0.8786080591873555
 40
0.9090271398777093
 40
0.939490610290713
 40
0.9699464470369011
 40
1.0
 40
1.0
 40
1.0
 40
1.0
 10
569.5434126238745
 20
-113.1512197385393
 30
0.0
 10
568.0662686095307
 20
-114.0180085583462
 30
0.0
 10
564.2968471420477
 20
-116.2299068928535
 30
0.0
 10
558.3403600462623
 20
-120.0228865815348
 30
0.0
 10
551.6914046390818
 20
-124.575151841239
 30
0.0
 10
545.157172997216
 20
-129.3945590104633
 30
0.0
 10
538.7416271953764
 20
-134.4683999793349
 30
0.0
 10
532.4593750908585
 20
-139.7836075224493
 30
0.0
 10
526.3223883722001
 20
-145.3250585873429
 30
0.0
 10
520.3407234331356
 20
-151.0786064281758
 30
0.0
 10
514.5221405344387
 20
-157.0311370849759
 30
0.0
 10
508.872995821164
 20
-163.1704182447239
 30
0.0
 10
503.3984743405882
 20
-169.4851596566956
 30
0.0
 10
498.1028720468223
 20
-175.9650385736426
 30
0.0
 10
492.9898600787052
 20
-182.6006505194081
 30
0.0
 10
488.0627215436378
 20
-189.3834294750891
 30
0.0
 10
483.324551234543
 20
-196.3055513014764
 30
0.0
 10
478.7784190661659
 20
-203.3598339860368
 30
0.0
 10
474.4275015179354
 20
-210.5396407742782
 30
0.0
 10
470.2752491000934
 20
-217.8386797221889
 30
0.0
 10
466.3255933097244
 20
-225.2506489230092
 30
0.0
 10
462.5827703465312
 20
-232.7695057485042
 30
0.0
 10
459.0513291881624
 20
-240.3895072736817
 30
0.0
 10
455.7360995747178
 20
-248.1053987425941
 30
0.0
 10
452.6424442096474
 20
-255.9119218413094
 30
0.0
 10
449.7763087694236
 20
-263.8036628786852
 30
0.0
 10
447.1442600099994
 20
-271.7748646945054
 30
0.0
 10
444.7535118369522
 20
-279.8191946182379
 30
0.0
 10
442.6119018309785
 20
-287.9294680038209
 30
0.0
 10
440.7279028055079
 20
-296.0973224377854
 30
0.0
 10
439.1102788272431
 20
-304.3128938632633
 30
0.0
 10
437.7687681790407
 20
-312.5643956561844
 30
0.0
 10
436.7105665823219
 20
-320.8378597079407
 30
0.0
 10
435.9522239581311
 20
-329.1150349047894
 30
0.0
 10
435.4749573658216
 20
-337.3474057075842
 30
0.0
 10
435.4154790424886
 20
-342.8036877907088
 30
0.0
 10
435.3859375953011
 20
-345.5136913679161
 30
0.0
  0
LWPOLYLINE
  5
10F
330
1F
100
AcDbEntity
  8
0
  6
Continuous
 62
     7
370
    25
100
AcDbPolyline
 90
      112
 70
   128
 43
0.0
 10
616.0108292763
 20
-123.0274857891
 10
616.1337096599
 20
-128.110671395
 10
616.5019571878
 20
-133.3194486959
 10
617.1143922521
 20
-138.6371324078
 10
617.9690530387
 20
-144.0466883868
 10
619.0632018114
 20
-149.530788194
 10
620.3933336819
 20
-155.0718646046
 10
621.9551878367
 20
-160.6521678802
 10
623.7437611862
 20
-166.2538226273
 10
625.7533243906
 20
-171.8588850567
 10
627.9774402133
 20
-177.4494004639
 10
630.4089841407
 20
-183.0074607425
 10
633.0401672046
 20
-188.5152617499
 10
635.8625609324
 20
-193.955160339
 10
638.8671243461
 20
-199.3097308745
 10
642.0442329232
 20
-204.5618210529
 10
645.3837094273
 20
-209.6946068458
 10
648.8748565082
 20
-214.691646393
 10
652.5064909693
 20
-219.5369326703
 10
656.2669795908
 20
-224.2149447651
 10
660.1442763937
 20
-228.7106975942
 10
664.1259612276
 20
-233.0097899061
 10
668.1992795555
 20
-237.098450412
 10
672.3511833108
 20
-240.9635818997
 10
676.5683726941
 20
-244.5928031877
 10
680.8373387765
 20
-247.9744887861
 10
685.1444067725
 20
-251.0978061366
 10
689.475779845
 20
-253.9527503119
 10
693.8175833
 20
-256.5301760653
 10
698.1559090324
 20
-258.8218271249
 10
702.4768600768
 20
-260.8203626417
 10
706.7665951243
 20
-262.5193807038
 10
711.0113728604
 20
-263.9134388441
 10
715.1975959823
 20
-264.9980714742
 10
719.3118547553
 20
-265.7698041887
 10
723.3409699681
 20
-266.2261648951
 10
727.2720351501
 20
-266.3656917325
 10
731.0924579144
 20
-266.1879377544
 10
734.7900002952
 20
-265.6934723603
 10
738.3528179493
 20
-264.8838794719
 10
741.7694980978
 20
-263.7617524595
 10
745.0290960842
 20
-262.330685834
 10
748.1211704334
 20
-260.5952637333
 10
751.035816299
 20
-258.5610452375
 10
753.7636971918
 20
-256.2345465619
 10
756.2960748867
 20
-253.623220183
 10
758.6248374145
 20
-250.7354309665
 10
760.7425250469
 20
-247.5804293718
 10
762.6423541919
 20
-244.1683218201
 10
764.3182391241
 20
-240.5100383208
 10
765.7648114787
 20
-236.6172974586
 10
766.9774374483
 20
-232.5025688561
 10
767.9522326265
 20
-228.1790332295
 10
768.6860744504
 20
-223.6605401669
 10
769.1766122033
 20
-218.9615637638
 10
769.4222745451
 20
-214.0971562582
 10
769.4222745451
 20
-209.0828998139
 10
769.1766122033
 20
-203.9348566058
 10
768.6860744504
 20
-198.6695173685
 10
767.9522326265
 20
-193.3037485709
 10
766.9774374483
 20
-187.854738388
 10
765.7648114787
 20
-182.3399416422
 10
764.3182391241
 20
-176.7770238901
 10
762.6423541919
 20
-171.1838048344
 10
760.7425250469
 20
-165.5782012418
 10
758.6248374145
 20
-159.9781695506
 10
756.2960748866
 20
-154.4016483507
 10
753.7636971918
 20
-148.8665009205
 10
751.035816299
 20
-143.3904580061
 10
748.1211704334
 20
-137.9910610238
 10
745.0290960842
 20
-132.6856058698
 10
741.7694980978
 20
-127.4910875165
 10
738.3528179493
 20
-122.4241455723
 10
734.7900002951
 20
-117.5010109797
 10
731.0924579144
 20
-112.737454023
 10
727.2720351501
 20
-108.1487338112
 10
723.3409699681
 20
-103.7495493986
 10
719.3118547553
 20
-99.5539926992
 10
715.1975959823
 20
-95.5755033457
 10
711.0113728604
 20
-91.8268256392
 10
706.7665951243
 20
-88.3199677243
 10
702.4768600768
 20
-85.0661631243
 10
698.1559090324
 20
-82.0758347562
 10
693.8175833
 20
-79.3585615432
 10
689.475779845
 20
-76.9230477308
 10
685.1444067725
 20
-74.7770950038
 10
680.8373387765
 20
-72.9275774958
 10
676.5683726941
 20
-71.3804197689
 10
672.3511833108
 20
-70.1405778359
 10
668.1992795555
 20
-69.2120232841
 10
664.1259612276
 20
-68.5977305537
 10
660.1442763937
 20
-68.2996674096
 10
656.2669795908
 20
-68.3187886379
 10
652.5064909693
 20
-68.6550329875
 10
648.8748565082
 20
-69.3073233664
 10
645.3837094273
 20
-70.2735702918
 10
642.0442329232
 20
-71.5506785836
 10
638.8671243461
 20
-73.1345572788
 10
635.8625609324
 20
-75.0201327366
 10
633.0401672046
 20
-77.2013648902
 10
630.4089841407
 20
-79.6712665955
 10
627.9774402133
 20
-82.4219260128
 10
625.7533243906
 20
-85.4445319506
 10
623.7437611862
 20
-88.7294020908
 10
621.9551878367
 20
-92.2660140042
 10
620.3933336819
 20
-96.0430388566
 10
619.0632018114
 20
-100.0483776986
 10
617.9690530387
 20
-104.2692002225
 10
617.1143922521
 20
-108.6919858612
 10
616.5019571878
 20
-113.3025670991
 10
616.1337096599
 20
-118.0861748543
 10
616.0108292763
 20
-123.0274857891
  0
LWPOLYLINE
  5
110
330
1F
100
AcDbEntity
  8
0
  6
Continuous
 62
     7
370
    25
100
AcDbPolyline
 90
      102
 70
   128
 43
0.0
 10
629.0923047283
 20
-130.5792608235
 10
629.2154093729
 20
-126.081563462
 10
629.5842470387
 20
-121.7434004152
 10
630.1973907645
 20
-117.581555193
 10
631.0524684163
 20
-113.6121291661
 10
632.1461718647
 20
-109.8504792727
 10
633.4742697837
 20
-106.3111586054
 10
635.0316240203
 20
-103.0078601083
 10
636.8122094736
 20
-99.9533636017
 10
638.8091374043
 20
-97.1594863391
 10
641.0146820863
 20
-94.6370372888
 10
643.4203106956
 20
-92.3957753162
 10
646.0167163224
 20
-90.4443714285
 10
648.7938539779
 20
-88.7903752283
 10
651.7409794558
 20
-87.4401857054
 10
654.8466909003
 20
-86.3990264809
 10
658.0989729172
 20
-85.6709255976
 10
661.485243059
 20
-85.2586999363
 10
664.9924005045
 20
-85.163944318
 10
668.6068767428
 20
-85.3870253338
 10
672.3146880676
 20
-85.9270799267
 10
676.1014896772
 20
-86.7820187302
 10
679.9526311717
 20
-87.9485341522
 10
683.8532132329
 20
-89.4221131712
 10
687.7881452665
 20
-91.1970547963
 10
691.7422037849
 20
-93.2664921231
 10
695.7000913039
 20
-95.6224189005
 10
699.6464955255
 20
-98.2557205057
 10
703.5661485785
 20
-101.1562092062
 10
707.4438860866
 20
-104.3126635747
 10
711.2647058368
 20
-107.7128719025
 10
715.0138258197
 20
-111.343679444
 10
718.6767414184
 20
-115.1910393104
 10
722.2392815241
 20
-119.2400668136
 10
725.6876633611
 20
-123.4750970528
 10
729.0085458101
 20
-127.8797455188
 10
732.189081022
 20
-132.4369714824
 10
735.2169641239
 20
-137.1291439215
 10
738.0804808243
 20
-141.9381097326
 10
740.7685527334
 20
-146.8452639612
 10
743.2707802232
 20
-151.8316217809
 10
745.5774826617
 20
-156.8778919419
 10
747.6797358651
 20
-161.9645514053
 10
749.5694066243
 20
-167.0719208738
 10
751.2391841703
 20
-172.1802409272
 10
752.6826084579
 20
-177.2697484675
 10
753.8940951592
 20
-182.3207531788
 10
754.8689572674
 20
-187.3137137051
 10
755.6034232304
 20
-192.2293132521
 10
756.094651542
 20
-197.0485343201
 10
756.3407417354
 20
-201.7527322789
 10
756.3407417354
 20
-206.3237075006
 10
756.094651542
 20
-210.7437757701
 10
755.6034232304
 20
-214.9958367018
 10
754.8689572674
 20
-219.063439898
 10
753.8940951592
 20
-222.9308485922
 10
752.6826084579
 20
-226.5831005315
 10
751.2391841703
 20
-230.0060658626
 10
749.5694066243
 20
-233.1865017976
 10
747.6797358651
 20
-236.1121038478
 10
745.5774826617
 20
-238.7715534271
 10
743.2707802232
 20
-241.1545616418
 10
740.7685527334
 20
-243.251909096
 10
738.0804808243
 20
-245.05548156
 10
735.2169641239
 20
-246.5583013621
 10
732.189081022
 20
-247.7545543845
 10
729.0085458101
 20
-248.6396125567
 10
725.6876633611
 20
-249.2100517606
 10
722.2392815241
 20
-249.4636650776
 10
718.6767414184
 20
-249.3994713272
 10
715.0138258197
 20
-249.0177188625
 10
711.2647058368
 20
-248.3198846095
 10
707.4438860866
 20
-247.3086683535
 10
703.5661485785
 20
-245.9879822938
 10
699.6464955255
 20
-244.362935908
 10
695.7000913039
 20
-242.439816185
 10
691.7422037849
 20
-240.2260633014
 10
687.7881452665
 20
-237.7302418371
 10
683.8532132329
 20
-234.9620076404
 10
679.9526311717
 20
-231.9320704716
 10
676.1014896772
 20
-228.6521525691
 10
672.3146880676
 20
-225.134943298
 10
668.6068767428
 20
-221.3940500577
 10
664.9924005045
 20
-217.4439456375
 10
661.485243059
 20
-213.2999122239
 10
658.0989729172
 20
-208.9779822773
 10
654.8466909003
 20
-204.4948765048
 10
651.7409794558
 20
-199.867939172
 10
648.7938539779
 20
-195.1150710003
 10
646.0167163224
 20
-190.2546599136
 10
643.4203106956
 20
-185.3055098979
 10
641.0146820863
 20
-180.2867682534
 10
638.8091374043
 20
-175.2178515164
 10
636.8122094736
 20
-170.1183703411
 10
635.0316240203
 20
-165.0080536295
 10
633.4742697837
 20
-159.9066722041
 10
632.1461718647
 20
-154.8339623187
 10
631.0524684163
 20
-149.8095493024
 10
630.1973907645
 20
-144.852871633
 10
629.5842470387
 20
-139.9831057335
 10
629.2154093729
 20
-135.2190917822
 10
629.0923047283
 20
-130.5792608235
  0
SPLINE
  5
111
330
1F
100
AcDbEntity
  8
0
  6
Continuous
 62
     7
370
    25
100
AcDbSpline
210
0.0
220
0.0
230
1.0
 70
     8
 71
     3
 72
    17
 73
    13
 74
     0
 42
0.00000001
 43
0.00000001
 40
0.0
 40
0.0
 40
0.0
 40
0.0
 40
0.0718755812187011
 40
0.1793221284230137
 40
0.2866164160369538
 40
0.3937515335472457
 40
0.5009689718881749
 40
0.6083815875691773
 40
0.715798004229991
 40
0.8230212213716035
 40
0.9301557911491687
 40
1.0
 40
1.0
 40
1.0
 40
1.0
 10
605.5609899850065
 20
-133.1403172367002
 30
0.0
 10
605.8370792223541
 20
-133.3001046433516
 30
0.0
 10
606.5258932651262
 20
-133.6987576680657
 30
0.0
 10
607.9944272495061
 20
-133.5079548712878
 30
0.0
 10
609.6794128019229
 20
-132.6613209376662
 30
0.0
 10
611.2758430661837
 20
-131.1543508177769
 30
0.0
 10
612.5977755071107
 20
-129.1946253607051
 30
0.0
 10
613.5182824435234
 20
-127.0035982339274
 30
0.0
 10
613.953523910743
 20
-124.8322253901533
 30
0.0
 10
613.8442142219201
 20
-122.9667761575604
 30
0.0
 10
613.3429073560474
 20
-121.6601322977419
 30
0.0
 10
612.7187117744146
 20
-121.3088038813865
 30
0.0
 10
612.4723746321584
 20
-121.1701530472168
 30
0.0
  0
LWPOLYLINE
  5
112
330
1F
100
AcDbEntity
  8
0
  6
Continuous
 62
     7
370
    25
100
AcDbPolyline
 90
      112
 70
   128
 43
0.0
 10
467.1648518366
 20
-380.8362804604
 10
471.6282314204
 20
-378.4015009433
 10
476.323074221
 20
-376.11639543
 10
481.2343412415
 20
-373.9882838024
 10
486.3463002131
 20
-372.0239830437
 10
491.64257599
 20
-370.2297854012
 10
497.1062030042
 20
-368.6114382311
 10
502.7196796112
 20
-367.1741255871
 10
508.4650241531
 20
-365.9224516149
 10
514.3238325593
 20
-364.8604258038
 10
520.2773373002
 20
-363.9914501424
 10
526.3064675052
 20
-363.3183082219
 10
532.3919100527
 20
-362.8431563186
 10
538.5141714356
 20
-362.5675164875
 10
544.653640205
 20
-362.492271686
 10
550.7906497915
 20
-362.6176629459
 10
556.9055415032
 20
-362.9432886012
 10
562.9787274985
 20
-363.4681055747
 10
568.9907535317
 20
-364.1904327194
 10
574.922361271
 20
-365.1079562038
 10
580.7545499885
 20
-366.2177369234
 10
586.4686374256
 20
-367.5162199162
 10
592.0463196375
 20
-368.9992457496
 10
597.4697296266
 20
-370.6620638447
 10
602.7214945756
 20
-372.499347694
 10
607.7847914981
 20
-374.5052119233
 10
612.6434011277
 20
-376.6732311447
 10
617.2817598728
 20
-378.9964605393
 10
621.6850096723
 20
-381.4674581026
 10
625.8390455893
 20
-384.0783084848
 10
629.7305609946
 20
-386.8206483448
 10
633.3470901912
 20
-389.6856931413
 10
636.6770483456
 20
-392.6642652722
 10
639.7097685981
 20
-395.7468234728
 10
642.4355362314
 20
-398.9234933801
 10
644.84561979
 20
-402.1840991625
 10
646.9322990497
 20
-405.5181961168
 10
648.6888897477
 20
-408.9151041253
 10
650.1097649944
 20
-412.3639418675
 10
651.1903732982
 20
-415.8536616765
 10
651.9272531448
 20
-419.3730849275
 10
652.3180440859
 20
-422.910937847
 10
652.3614943003
 20
-426.4558876254
 10
652.0574646038
 20
-429.9965787199
 10
651.4069288954
 20
-433.5216692295
 10
650.4119710369
 20
-437.0198672265
 10
649.0757781783
 20
-440.4799669281
 10
647.4026305482
 20
-443.8908845919
 10
645.3978877428
 20
-447.2416940203
 10
643.0679715578
 20
-450.5216615605
 10
640.4203454171
 20
-453.7202804876
 10
637.4634904654
 20
-456.8273046609
 10
634.2068784005
 20
-459.8327813453
 10
630.6609411327
 20
-462.7270830929
 10
626.8370373681
 20
-465.5009385826
 10
622.7474162232
 20
-468.1454623191
 10
618.4051779875
 20
-470.6521830956
 10
613.824232159
 20
-473.0130711296
 10
609.0192528885
 20
-475.2205637851
 10
604.0056319729
 20
-477.2675897976
 10
598.7994295517
 20
-479.1475919257
 10
593.4173226607
 20
-480.8545479558
 10
587.8765518108
 20
-482.382989993
 10
582.1948657615
 20
-483.7280219768
 10
576.3904646661
 20
-484.8853353642
 10
570.4819417712
 20
-485.8512229316
 10
564.4882238569
 20
-486.6225906498
 10
558.4285106086
 20
-487.1969675956
 10
552.3222131147
 20
-487.5725138663
 10
546.188891687
 20
-487.7480264742
 10
540.0481932031
 20
-487.7229431993
 10
533.9197881714
 20
-487.497344391
 10
527.8233077209
 20
-487.0719527103
 10
521.7782807163
 20
-486.448130815
 10
515.8040712017
 20
-485.6278769946
 10
509.9198163711
 20
-484.6138187695
 10
504.1443652667
 20
-483.4092044738
 10
498.4962183996
 20
-482.0178928504
 10
492.9934684869
 20
-480.4443406897
 10
487.6537424957
 20
-478.6935885537
 10
482.4941451779
 20
-476.7712446294
 10
477.5312042794
 20
-474.6834667638
 10
472.7808175959
 20
-472.4369427389
 10
468.2582020483
 20
-470.0388688485
 10
463.9778449375
 20
-467.496926846
 10
459.9534575378
 20
-464.8192593382
 10
456.1979311753
 20
-462.0144437012
 10
452.7232959332
 20
-459.0914646052
 10
449.5406821155
 20
-456.0596852334
 10
446.6602845939
 20
-452.9288172891
 10
444.09133015
 20
-449.7088898862
 10
441.8420479194
 20
-446.410217423
 10
439.919643031
 20
-443.0433665418
 10
438.3302735275
 20
-439.619122281
 10
437.0790306383
 20
-436.1484535273
 10
436.1699224718
 20
-432.642477879
 10
435.6058611755
 20
-429.1124260331
 10
435.3886536076
 20
-425.5696058099
 10
435.5189955496
 20
-422.0253659306
 10
435.996469477
 20
-418.4910596641
 10
436.8195458967
 20
-414.9780084588
 10
437.9855882469
 20
-411.4974656769
 10
439.4908613424
 20
-408.0605805461
 10
441.3305433397
 20
-404.6783624457
 10
443.4987411827
 20
-401.36164564
 10
445.98850948
 20
-398.1210545727
 10
448.7918727533
 20
-394.966969834
 10
451.8998509847
 20
-391.9094949082
 10
455.3024883831
 20
-388.9584238092
 10
458.9888852751
 20
-386.1232097075
 10
462.9472330199
 20
-383.4129346485
 10
467.1648518366
 20
-380.8362804604
  0
LWPOLYLINE
  5
113
330
1F
100
AcDbEntity
  8
0
  6
Continuous
 62
     7
370
    25
100
AcDbPolyline
 90
      102
 70
   128
 43
0.0
 10
480.2463272885
 20
-388.3880554948
 10
476.4129804341
 20
-390.7431331272
 10
472.8406733431
 20
-393.2312330191
 10
469.5432265777
 20
-395.8427291953
 10
466.5333973189
 20
-398.5675182844
 10
463.8228300114
 20
-401.3950586067
 10
461.4220113135
 20
-404.3144109581
 10
459.3402295264
 20
-407.3142809314
 10
457.5855386593
 20
-410.3830626125
 10
456.1647272703
 20
-413.5088834812
 10
455.0832922028
 20
-416.6796503438
 10
454.3454173188
 20
-419.8830961193
 10
453.953957313
 20
-423.1068272984
 10
453.9104266681
 20
-426.3383718913
 10
454.2149937957
 20
-429.5652276798
 10
454.8664803847
 20
-432.7749105858
 10
455.8623659601
 20
-435.9550029696
 10
457.198797634
 20
-439.0932016716
 10
458.870605012
 20
-442.1773656105
 10
460.8713201961
 20
-445.1955627554
 10
463.1932028079
 20
-448.1361162878
 10
465.8272699346
 20
-450.9876497774
 10
468.7633308822
 20
-453.7391311949
 10
471.9900266014
 20
-456.3799155934
 10
475.4948736332
 20
-458.899786291
 10
479.2643124053
 20
-461.2889943975
 10
483.2837596915
 20
-463.5382965309
 10
487.5376650309
 20
-465.6389905782
 10
492.0095708902
 20
-467.5829493622
 10
496.6821763345
 20
-469.3626520841
 10
501.5374039609
 20
-470.9712134198
 10
506.556469837
 20
-472.4024101578
 10
511.719956172
 20
-473.6507052762
 10
517.0078864404
 20
-474.7112693636
 10
522.3998026671
 20
-475.5799993035
 10
527.8748445758
 20
-476.2535341486
 10
533.411830293
 20
-476.7292681234
 10
538.9893382965
 20
-477.0053607056
 10
544.5857902915
 20
-477.0807437466
 10
550.1795346924
 20
-476.9551256041
 10
555.7489303887
 20
-476.6289922703
 10
561.2724304705
 20
-476.1036054917
 10
566.728665589
 20
-475.3809978876
 10
572.0965266305
 20
-474.4639650866
 10
577.3552463834
 20
-473.3560549103
 10
582.4844798826
 20
-472.061553648
 10
587.4643831201
 20
-470.5854694736
 10
592.2756898177
 20
-468.93351307
 10
596.8997859646
 20
-467.1120755357
 10
601.3187818309
 20
-465.1282036586
 10
605.5155811802
 20
-462.9895726536
 10
609.4739474111
 20
-460.7044564686
 10
613.1785663736
 20
-458.2816957741
 10
616.6151056167
 20
-455.7306637607
 10
619.7702698375
 20
-453.0612298757
 10
622.6318523188
 20
-450.28372164
 10
625.1887821538
 20
-447.4088846936
 10
627.4311670776
 20
-444.4478412221
 10
629.3503317386
 20
-441.4120469275
 10
630.9388512617
 20
-438.3132467081
 10
632.1905799733
 20
-435.1634292199
 10
633.1006751782
 20
-431.974780495
 10
633.6656158949
 20
-428.7596367957
 10
633.8832164775
 20
-425.5304368886
 10
633.7526350717
 20
-422.2996739206
 10
633.2743768714
 20
-419.0798470861
 10
632.4502921649
 20
-415.8834132696
 10
631.2835691756
 20
-412.7227388525
 10
629.7787217283
 20
-409.6100518702
 10
627.9415717853
 20
-406.557394704
 10
625.7792269228
 20
-403.5765774912
 10
623.3000528332
 20
-400.6791324348
 10
620.5136409592
 20
-397.8762691867
 10
617.4307713872
 20
-395.1788314803
 10
614.0633711406
 20
-392.5972551781
 10
610.4244680368
 20
-390.1415278973
 10
606.5281402849
 20
-387.8211503696
 10
602.3894620202
 20
-385.645099685
 10
598.0244449848
 20
-383.6217945608
 10
593.4499765816
 20
-381.7590627715
 10
588.6837545402
 20
-380.0641108645
 10
583.7442184479
 20
-378.5434962794
 10
578.6504784101
 20
-377.2031019787
 10
573.4222411174
 20
-376.0481136876
 10
568.0797336044
 20
-375.0829998313
 10
562.6436249947
 20
-374.3114942479
 10
557.1349465365
 20
-373.7365817425
 10
551.5750102364
 20
-373.3604865401
 10
545.9853264081
 20
-373.1846636799
 10
540.3875204523
 20
-373.2097933863
 10
534.8032491928
 20
-373.4357784374
 10
529.2541170903
 20
-373.861744541
 10
523.7615926588
 20
-374.4860437169
 10
518.3469254084
 20
-375.3062606729
 10
513.0310636347
 20
-376.319222149
 10
507.8345733743
 20
-377.521009194
 10
502.7775588385
 20
-378.9069723272
 10
497.8795846341
 20
-380.4717495266
 10
493.1596000717
 20
-382.2092869732
 10
488.6358658548
 20
-384.1128624721
 10
484.3258834322
 20
-386.1751114595
 10
480.2463272885
 20
-388.3880554948
  0
SPLINE
  5
114
330
1F
100
AcDbEntity
  8
0
  6
Continuous
 62
     7
370
    25
100
AcDbSpline
210
0.0
220
0.0
230
1.0
 70
     8
 71
     3
 72
    14
 73
    10
 74
     0
 42
0.00000001
 43
0.00000001
 40
0.0
 40
0.0
 40
0.0
 40
0.0
 40
0.1429740620054247
 40
0.2859409498288381
 40
0.4290941648998561
 40
0.5723703802078777
 40
0.7154435626737959
 40
0.8583044973696894
 40
1.0
 40
1.0
 40
1.0
 40
1.0
 10
467.1648518365607
 20
-378.3866580247376
 30
0.0
 10
467.7244130421401
 20
-378.0047615976713
 30
0.0
 10
468.8435073755213
 20
-377.2409879064165
 30
0.0
 10
470.3742315241267
 20
-375.4323641071692
 30
0.0
 10
471.5566870505504
 20
-373.3663579771255
 30
0.0
 10
472.2443550249291
 20
-371.2031873359904
 30
0.0
 10
472.3348428120519
 20
-369.2134982669405
 30
0.0
 10
471.8558631989761
 20
-367.5582531416178
 30
0.0
 10
471.112514807548
 20
-366.9569008903795
 30
0.0
 10
470.7423628442238
 20
-366.6574562167755
 30
0.0
  0
SPLINE
  5
115
330
1F
100
AcDbEntity
  8
0
  6
Continuous
 62
     7
370
    25
100
AcDbSpline
210
0.0
220
0.0
230
1.0
 70
     8
 71
     3
 72
    10
 73
     6
 74
     0
 42
0.00000001
 43
0.00000001
 40
0.0
 40
0.0
 40
0.0
 40
0.0
 40
0.296410810441312
 40
0.7258274350002575
 40
1.0
 40
1.0
 40
1.0
 40
1.0
 10
463.7850173192328
 20
-378.7045788441102
 30
0.0
 10
464.0464445935017
 20
-378.8511989585783
 30
0.0
 10
464.686607101877
 20
-379.2102307410069
 30
0.0
 10
465.9107774808917
 20
-379.0172956560537
 30
0.0
 10
466.813198909668
 20
-378.5634940854213
 30
0.0
 10
467.1648518365607
 20
-378.3866580247376
 30
0.0
  0
LWPOLYLINE
  5
116
330
1F
100
AcDbEntity
  8
0
  6
Continuous
 62
     7
370
    25
100
AcDbPolyline
 90
       29
 70
   128
 43
0.0
 10
591.6156453254
 20
-122.8233837611
 10
591.7397458286
 20
-121.4798600971
 10
592.1058244208
 20
-120.0604229284
 10
592.6955243927
 20
-118.636248762
 10
593.4792757254
 20
-117.2787516372
 10
594.4177778545
 20
-116.0560021283
 10
595.4639703642
 20
-115.0293140015
 10
596.5653927937
 20
-114.2501696866
 10
597.6668152232
 20
-113.7576387328
 10
598.7130077329
 20
-113.5764186989
 10
599.651509862
 20
-113.715596714
 10
600.4352611947
 20
-114.1681938114
 10
601.0249611666
 20
-114.9115148827
 10
601.3910397588
 20
-115.9082867054
 10
601.515140262
 20
-117.1085269784
 10
601.3910397588
 20
-118.4520506425
 10
601.0249611666
 20
-119.8714878111
 10
600.4352611947
 20
-121.2956619776
 10
599.651509862
 20
-122.6531591024
 10
598.7130077329
 20
-123.8759086112
 10
597.6668152232
 20
-124.902596738
 10
596.5653927937
 20
-125.681741053
 10
595.4639703642
 20
-126.1742720067
 10
594.4177778545
 20
-126.3554920406
 10
593.4792757254
 20
-126.2163140255
 10
592.6955243927
 20
-125.7637169281
 10
592.1058244208
 20
-125.0203958569
 10
591.7397458286
 20
-124.0236240341
 10
591.6156453254
 20
-122.8233837611
  0
LWPOLYLINE
  5
117
330
1F
100
AcDbEntity
  8
0
  6
Continuous
 62
     7
370
    25
100
AcDbPolyline
 90
       24
 70
   128
 43
0.0
 10
593.0298588878
 20
-122.0069756493
 10
593.1609660757
 20
-120.829788708
 10
593.544564019
 20
-119.5885351997
 10
594.1522030132
 20
-118.3752732188
 10
594.9388172539
 20
-117.2799848562
 10
595.8460671612
 20
-116.3839026391
 10
596.80666616
 20
-115.7534848862
 10
597.7493710169
 20
-115.4354867983
 10
598.6042656254
 20
-115.4534928389
 10
599.3079463632
 20
-115.8061675822
 10
599.8082244491
 20
-116.467354756
 10
600.067996546
 20
-117.3880171322
 10
600.067996546
 20
-118.4998733943
 10
599.8082244491
 20
-119.7204622496
 10
599.3079463632
 20
-120.9592582065
 10
598.6042656254
 20
-122.1243854361
 10
597.7493710169
 20
-123.1294317819
 10
596.80666616
 20
-123.8998575541
 10
595.8460671612
 20
-124.3785237977
 10
594.9388172539
 20
-124.5299300272
 10
594.1522030132
 20
-124.3428471351
 10
593.544564019
 20
-123.8311502037
 10
593.1609660757
 20
-123.0327894536
 10
593.0298588878
 20
-122.0069756493
  0
LWPOLYLINE
  5
118
330
1F
100
AcDbEntity
  8
0
  6
Continuous
 62
     7
370
    25
100
AcDbPolyline
 90
       29
 70
   128
 43
0.0
 10
449.8407356975
 20
-368.3847297545
 10
449.9648362007
 20
-367.0412060904
 10
450.3309147929
 20
-365.6217689218
 10
450.9206147648
 20
-364.1975947553
 10
451.7043660975
 20
-362.8400976305
 10
452.6428682266
 20
-361.6173481216
 10
453.6890607363
 20
-360.5906599949
 10
454.7904831658
 20
-359.8115156799
 10
455.8919055953
 20
-359.3189847261
 10
456.938098105
 20
-359.1377646922
 10
457.8766002341
 20
-359.2769427074
 10
458.6603515668
 20
-359.7295398047
 10
459.2500515387
 20
-360.472860876
 10
459.6161301309
 20
-361.4696326988
 10
459.7402306341
 20
-362.6698729717
 10
459.6161301309
 20
-364.0133966358
 10
459.2500515387
 20
-365.4328338044
 10
458.6603515668
 20
-366.8570079709
 10
457.8766002341
 20
-368.2145050957
 10
456.938098105
 20
-369.4372546045
 10
455.8919055953
 20
-370.4639427313
 10
454.7904831658
 20
-371.2430870463
 10
453.6890607363
 20
-371.7356180001
 10
452.6428682266
 20
-371.916838034
 10
451.7043660975
 20
-371.7776600188
 10
450.9206147648
 20
-371.3250629215
 10
450.3309147929
 20
-370.5817418502
 10
449.9648362007
 20
-369.5849700274
 10
449.8407356975
 20
-368.3847297545
  0
LWPOLYLINE
  5
119
330
1F
100
AcDbEntity
  8
0
  6
Continuous
 62
     7
370
    25
100
AcDbPolyline
 90
       24
 70
   128
 43
0.0
 10
451.2549492599
 20
-367.5683216426
 10
451.3860564478
 20
-366.3911347013
 10
451.7696543911
 20
-365.149881193
 10
452.3772933853
 20
-363.9366192121
 10
453.163907626
 20
-362.8413308495
 10
454.0711575333
 20
-361.9452486324
 10
455.0317565321
 20
-361.3148308795
 10
455.974461389
 20
-360.9968327917
 10
456.8293559975
 20
-361.0148388322
 10
457.5330367353
 20
-361.3675135755
 10
458.0333148212
 20
-362.0287007493
 10
458.2930869181
 20
-362.9493631255
 10
458.2930869181
 20
-364.0612193876
 10
458.0333148212
 20
-365.2818082429
 10
457.5330367353
 20
-366.5206041998
 10
456.8293559975
 20
-367.6857314295
 10
455.974461389
 20
-368.6907777752
 10
455.0317565321
 20
-369.4612035474
 10
454.0711575333
 20
-369.939869791
 10
453.163907626
 20
-370.0912760205
 10
452.3772933853
 20
-369.9041931284
 10
451.7696543911
 20
-369.392496197
 10
451.3860564478
 20
-368.5941354469
 10
451.2549492599
 20
-367.5683216426
  0
LWPOLYLINE
  5
11A
330
1F
100
AcDbEntity
  8
0
  6
Continuous
 62
     1
370
    25
100
AcDbPolyline
 90
       43
 70
   128
 43
0.0
 10
547.0679181106
 20
-162.8273812405
 10
547.1907984942
 20
-167.9105668463
 10
547.5590460221
 20
-173.1193441472
 10
548.1714810864
 20
-178.4370278592
 10
549.026141873
 20
-183.8465838381
 10
550.1202906457
 20
-189.3306836454
 10
551.4504225162
 20
-194.8717600559
 10
553.012276671
 20
-200.4520633316
 10
554.8008500205
 20
-206.0537180786
 10
556.810413225
 20
-211.6587805081
 10
559.0345290476
 20
-217.2492959153
 10
561.4660729751
 20
-222.8073561939
 10
564.0972560389
 20
-228.3151572013
 10
566.9196497667
 20
-233.7550557903
 10
569.9242131804
 20
-239.1096263259
 10
573.1013217575
 20
-244.3617165042
 10
576.4407982616
 20
-249.4945022971
 10
579.9319453425
 20
-254.4915418443
 10
583.5635798037
 20
-259.3368281217
 10
587.3240684251
 20
-264.0148402164
 10
591.201365228
 20
-268.5105930456
 10
595.1830500619
 20
-272.8096853575
 10
599.2563683898
 20
-276.8983458634
 10
603.4082721451
 20
-280.763477351
 10
607.6254615285
 20
-284.392698639
 10
611.8944276108
 20
-287.7743842375
 10
616.2014956068
 20
-290.8977015879
 10
620.5328686793
 20
-293.7526457633
 10
624.8746721344
 20
-296.3300715166
 10
629.2129978667
 20
-298.6217225763
 10
633.5339489111
 20
-300.6202580931
 10
637.8236839586
 20
-302.3192761551
 10
642.0684616947
 20
-303.7133342954
 10
646.2546848166
 20
-304.7979669255
 10
650.3689435896
 20
-305.56969964
 10
654.3980588024
 20
-306.0260603465
 10
658.3291239844
 20
-306.1655871839
 10
662.1495467488
 20
-305.9878332057
 10
665.8470891295
 20
-305.4933678116
 10
669.4099067836
 20
-304.6837749233
 10
672.8265869322
 20
-303.5616479108
 10
676.0861849185
 20
-302.1305812853
 10
678.0345951149
 20
-301.0838228751
  0
LWPOLYLINE
  5
11B
330
1F
100
AcDbEntity
  8
0
  6
Continuous
 62
     1
370
    25
100
AcDbPolyline
 90
       15
 70
   128
 43
0.0
 10
569.5434126239
 20
-113.1512197385
 10
566.9196497667
 20
-114.8200281879
 10
564.0972560389
 20
-117.0012603416
 10
561.4660729751
 20
-119.4711620469
 10
559.0345290476
 20
-122.2218214641
 10
556.810413225
 20
-125.2444274019
 10
554.8008500205
 20
-128.5292975422
 10
553.012276671
 20
-132.0659094556
 10
551.4504225162
 20
-135.8429343079
 10
550.1202906457
 20
-139.84827315
 10
549.026141873
 20
-144.0690956739
 10
548.1714810864
 20
-148.4918813126
 10
547.5590460221
 20
-153.1024625504
 10
547.1907984942
 20
-157.8860703056
 10
547.0679181106
 20
-162.8273812405
  0
LWPOLYLINE
  5
11C
330
1F
100
AcDbEntity
  8
0
  6
Continuous
 62
     1
370
    25
100
AcDbPolyline
 90
       43
 70
   128
 43
0.0
 10
467.1648518366
 20
-301.2235513015
 10
471.6282314204
 20
-298.7887717844
 10
476.323074221
 20
-296.5036662712
 10
481.2343412415
 20
-294.3755546436
 10
486.3463002131
 20
-292.4112538848
 10
491.64257599
 20
-290.6170562424
 10
497.1062030042
 20
-288.9987090722
 10
502.7196796112
 20
-287.5613964282
 10
508.4650241531
 20
-286.3097224561
 10
514.3238325593
 20
-285.2476966449
 10
520.2773373002
 20
-284.3787209835
 10
526.3064675052
 20
-283.705579063
 10
532.3919100527
 20
-283.2304271598
 10
538.5141714356
 20
-282.9547873287
 10
544.653640205
 20
-282.8795425272
 10
550.7906497915
 20
-283.0049337871
 10
556.9055415032
 20
-283.3305594423
 10
562.9787274985
 20
-283.8553764158
 10
568.9907535317
 20
-284.5777035605
 10
574.922361271
 20
-285.4952270449
 10
580.7545499885
 20
-286.6050077646
 10
586.4686374256
 20
-287.9034907573
 10
592.0463196375
 20
-289.3865165907
 10
597.4697296266
 20
-291.0493346859
 10
602.7214945756
 20
-292.8866185351
 10
607.7847914981
 20
-294.8924827644
 10
612.6434011277
 20
-297.0605019859
 10
617.2817598728
 20
-299.3837313804
 10
621.6850096723
 20
-301.8547289438
 10
625.8390455893
 20
-304.4655793259
 10
629.7305609946
 20
-307.2079191859
 10
633.3470901912
 20
-310.0729639824
 10
636.6770483456
 20
-313.0515361133
 10
639.7097685981
 20
-316.134094314
 10
642.4355362314
 20
-319.3107642212
 10
644.84561979
 20
-322.5713700037
 10
646.9322990497
 20
-325.905466958
 10
648.6888897477
 20
-329.3023749664
 10
650.1097649944
 20
-332.7512127087
 10
651.1903732982
 20
-336.2409325176
 10
651.9272531448
 20
-339.7603557687
 10
652.3180440859
 20
-343.2982086881
 10
652.3859375953
 20
-345.5136913679
  0
LWPOLYLINE
  5
11D
330
1F
100
AcDbEntity
  8
0
  6
Continuous
 62
     1
370
    25
100
AcDbPolyline
 90
       15
 70
   128
 43
0.0
 10
435.3859375953
 20
-345.5136913679
 10
435.5189955496
 20
-342.4126367717
 10
435.996469477
 20
-338.8783305052
 10
436.8195458967
 20
-335.3652792999
 10
437.9855882469
 20
-331.884736518
 10
439.4908613424
 20
-328.4478513873
 10
441.3305433397
 20
-325.0656332869
 10
443.4987411827
 20
-321.7489164811
 10
445.98850948
 20
-318.5083254138
 10
448.7918727533
 20
-315.3542406751
 10
451.8998509847
 20
-312.2967657493
 10
455.3024883831
 20
-309.3456946503
 10
458.9888852751
 20
-306.5104805486
 10
462.9472330199
 20
-303.8002054897
 10
467.1648518366
 20
-301.2235513015
  0
LWPOLYLINE
  5
11E
330
1F
100
AcDbEntity
  8
0
  6
Continuous
 62
     1
370
    25
100
AcDbPolyline
 90
       25
 70
   128
 43
0.0
 10
629.3333817217
 20
-137.1089758665
 10
630.7035843598
 20
-138.055615957
 10
634.6232374128
 20
-140.9561046575
 10
638.5009749209
 20
-144.112559026
 10
642.3217946711
 20
-147.5127673538
 10
646.070914654
 20
-151.1435748954
 10
649.7338302527
 20
-154.9909347617
 10
653.2963703584
 20
-159.0399622649
 10
656.7447521954
 20
-163.2749925042
 10
660.0656346444
 20
-167.6796409702
 10
663.2461698563
 20
-172.2368669337
 10
666.2740529582
 20
-176.9290393729
 10
669.1375696586
 20
-181.738005184
 10
671.8256415677
 20
-186.6451594126
 10
674.3278690575
 20
-191.6315172322
 10
676.634571496
 20
-196.6777873932
 10
678.7368246994
 20
-201.7644468567
 10
680.6264954587
 20
-206.8718163252
 10
682.2962730046
 20
-211.9801363786
 10
683.7396972923
 20
-217.0696439189
 10
684.9511839935
 20
-222.1206486302
 10
685.9260461017
 20
-227.1136091565
 10
686.6605120647
 20
-232.0292087034
 10
687.1517403763
 20
-236.8484297714
 10
687.1875371827
 20
-237.3261712958
  0
LWPOLYLINE
  5
11F
330
1F
100
AcDbEntity
  8
0
  6
Continuous
 62
     1
370
    25
100
AcDbPolyline
 90
       25
 70
   128
 43
0.0
 10
486.0471122625
 20
-385.3200559473
 10
487.5376650309
 20
-386.0262614193
 10
492.0095708902
 20
-387.9702202034
 10
496.6821763345
 20
-389.7499229253
 10
501.5374039609
 20
-391.3584842609
 10
506.556469837
 20
-392.789680999
 10
511.719956172
 20
-394.0379761173
 10
517.0078864404
 20
-395.0985402047
 10
522.3998026671
 20
-395.9672701446
 10
527.8748445758
 20
-396.6408049897
 10
533.411830293
 20
-397.1165389645
 10
538.9893382965
 20
-397.3926315467
 10
544.5857902915
 20
-397.4680145878
 10
550.1795346924
 20
-397.3423964453
 10
555.7489303887
 20
-397.0162631115
 10
561.2724304705
 20
-396.4908763328
 10
566.728665589
 20
-395.7682687288
 10
572.0965266305
 20
-394.8512359277
 10
577.3552463834
 20
-393.7433257514
 10
582.4844798826
 20
-392.4488244891
 10
587.4643831201
 20
-390.9727403147
 10
592.2756898177
 20
-389.3207839112
 10
596.8997859646
 20
-387.4993463769
 10
601.3187818309
 20
-385.5154744997
 10
601.7247629281
 20
-385.3200559473
  0
ENDSEC
  0
SECTION
  2
OBJECTS
  0
DICTIONARY
  5
C
330
0
100
AcDbDictionary
281
     1
  3
ACAD_GROUP
350
D
  3
ACAD_LAYOUT
350
1A
  3
ACAD_MLINESTYLE
350
17
  3
ACAD_PLOTSETTINGS
350
19
  3
ACAD_PLOTSTYLENAME
350
E
  3
ACAD_SCALELIST
350
47
  3
DWGPROPS
350
120
  0
DICTIONARY
  5
D
102
{ACAD_REACTORS
330
C
102
}
330
C
100
AcDbDictionary
281
     1
  0
DICTIONARY
  5
1A
102
{ACAD_REACTORS
330
C
102
}
330
C
100
AcDbDictionary
281
     1
  3
Layout1
350
1E
  3
Layout2
350
26
  3
Model
350
22
  0
DICTIONARY
  5
17
102
{ACAD_REACTORS
330
C
102
}
330
C
100
AcDbDictionary
281
     1
  3
Standard
350
18
  0
DICTIONARY
  5
19
102
{ACAD_REACTORS
330
C
102
}
330
C
100
AcDbDictionary
281
     1
  0
ACDBDICTIONARYWDFLT
  5
E
102
{ACAD_REACTORS
330
C
102
}
330
C
100
AcDbDictionary
281
     1
  3
Normal
350
F
100
AcDbDictionaryWithDefault
340
F
  0
DICTIONARY
  5
47
102
{ACAD_REACTORS
330
C
102
}
330
C
100
AcDbDictionary
281
     1
  3
A0
350
48
  3
A1
350
49
  3
A2
350
4A
  3
A3
350
4B
  3
A4
350
4C
  3
A5
350
4D
  3
A6
350
4E
  3
A7
350
4F
  3
A8
350
50
  3
A9
350
51
  3
B0
350
52
  3
B1
350
53
  3
B2
350
54
  3
B3
350
55
  3
B4
350
56
  3
B5
350
57
  3
B6
350
58
  3
B7
350
59
  3
B8
350
5A
  3
B9
350
5B
  3
C0
350
5C
  3
C1
350
5D
  3
C2
350
5E
  3
C3
350
5F
  3
C4
350
60
  3
C5
350
61
  3
C6
350
62
  3
C7
350
63
  3
C8
350
64
  3
C9
350
65
  3
D0
350
66
  3
D1
350
67
  3
D2
350
68
  0
XRECORD
  5
120
102
{ACAD_REACTORS
330
C
102
}
330
C
100
AcDbXrecord
280
     1
  1
DWGPROPS COOKIE
  2

  3

  4

  6

  7

  8
b.kav
  9

300
=
301
=
302
=
303
=
304
=
305
=
306
=
307
=
308
=
309
=
 40
0.0
 41
2460665.489684398
 42
2460665.489684595
  1

 90
        0
  0
LAYOUT
  5
1E
102
{ACAD_REACTORS
330
1A
102
}
330
1A
100
AcDbPlotSettings
  1

  2
none_device
  4

  6

 40
0.0
 41
0.0
 42
0.0
 43
0.0
 44
0.0
 45
0.0
 46
0.0
 47
0.0
 48
0.0
 49
0.0
140
0.0
141
0.0
142
1.0
143
1.0
 70
   688
 72
     1
 73
     0
 74
     5
  7

 75
    16
147
1.0
148
0.0
149
0.0
100
AcDbLayout
  1
Layout1
 70
     1
 71
     1
 10
0.0
 20
0.0
 11
420.0
 21
297.0
 12
0.0
 22
0.0
 32
0.0
 14
1.0000000000E+20
 24
1.0000000000E+20
 34
1.0000000000E+20
 15
-1.0000000000E+20
 25
-1.0000000000E+20
 35
-1.0000000000E+20
146
0.0
 13
0.0
 23
0.0
 33
0.0
 16
1.0
 26
0.0
 36
0.0
 17
0.0
 27
1.0
 37
0.0
 76
     0
330
1B
  0
LAYOUT
  5
26
102
{ACAD_REACTORS
330
1A
102
}
330
1A
100
AcDbPlotSettings
  1

  2
none_device
  4

  6

 40
0.0
 41
0.0
 42
0.0
 43
0.0
 44
0.0
 45
0.0
 46
0.0
 47
0.0
 48
0.0
 49
0.0
140
0.0
141
0.0
142
1.0
143
1.0
 70
   688
 72
     1
 73
     0
 74
     5
  7

 75
    16
147
1.0
148
0.0
149
0.0
100
AcDbLayout
  1
Layout2
 70
     1
 71
     2
 10
0.0
 20
0.0
 11
0.0
 21
0.0
 12
0.0
 22
0.0
 32
0.0
 14
0.0
 24
0.0
 34
0.0
 15
0.0
 25
0.0
 35
0.0
146
0.0
 13
0.0
 23
0.0
 33
0.0
 16
1.0
 26
0.0
 36
0.0
 17
0.0
 27
1.0
 37
0.0
 76
     0
330
23
  0
LAYOUT
  5
22
102
{ACAD_REACTORS
330
1A
102
}
330
1A
100
AcDbPlotSettings
  1

  2
none_device
  4
Letter_(8.50_x_11.00_Inches)
  6

 40
6.35
 41
6.35
 42
6.35000508
 43
6.35000508
 44
215.9
 45
279.4
 46
0.0
 47
0.0
 48
0.0
 49
0.0
140
0.0
141
0.0
142
1.0
143
1.0
 70
  1712
 72
     1
 73
     0
 74
     0
  7

 75
     0
147
1.0
148
0.0
149
0.0
100
AcDbLayout
  1
Model
 70
     1
 71
     0
 10
0.0
 20
0.0
 11
279.4
 21
215.9
 12
0.0
 22
0.0
 32
0.0
 14
0.0
 24
0.0
 34
0.0
 15
279.4
 25
215.9
 35
0.0
146
0.0
 13
0.0
 23
0.0
 33
0.0
 16
1.0
 26
0.0
 36
0.0
 17
0.0
 27
1.0
 37
0.0
 76
     0
330
1F
331
29
  0
MLINESTYLE
  5
18
102
{ACAD_REACTORS
330
17
102
}
330
17
100
AcDbMlineStyle
  2
Standard
 70
     0
  3

 62
   256
 51
90.0
 52
90.0
 71
     2
 49
0.5
 62
   256
  6
BYLAYER
 49
-0.5
 62
   256
  6
BYLAYER
  0
ACDBPLACEHOLDER
  5
F
102
{ACAD_REACTORS
330
E
102
}
330
E
  0
SCALE
  5
48
102
{ACAD_REACTORS
330
47
102
}
330
47
100
AcDbScale
 70
     0
300
1:1
140
1.0
141
1.0
290
     1
  0
SCALE
  5
49
102
{ACAD_REACTORS
330
47
102
}
330
47
100
AcDbScale
 70
     0
300
1:2
140
1.0
141
2.0
290
     0
  0
SCALE
  5
4A
102
{ACAD_REACTORS
330
47
102
}
330
47
100
AcDbScale
 70
     0
300
1:4
140
1.0
141
4.0
290
     0
  0
SCALE
  5
4B
102
{ACAD_REACTORS
330
47
102
}
330
47
100
AcDbScale
 70
     0
300
1:5
140
1.0
141
5.0
290
     0
  0
SCALE
  5
4C
102
{ACAD_REACTORS
330
47
102
}
330
47
100
AcDbScale
 70
     0
300
1:8
140
1.0
141
8.0
290
     0
  0
SCALE
  5
4D
102
{ACAD_REACTORS
330
47
102
}
330
47
100
AcDbScale
 70
     0
300
1:10
140
1.0
141
10.0
290
     0
  0
SCALE
  5
4E
102
{ACAD_REACTORS
330
47
102
}
330
47
100
AcDbScale
 70
     0
300
1:16
140
1.0
141
16.0
290
     0
  0
SCALE
  5
4F
102
{ACAD_REACTORS
330
47
102
}
330
47
100
AcDbScale
 70
     0
300
1:20
140
1.0
141
20.0
290
     0
  0
SCALE
  5
50
102
{ACAD_REACTORS
330
47
102
}
330
47
100
AcDbScale
 70
     0
300
1:30
140
1.0
141
30.0
290
     0
  0
SCALE
  5
51
102
{ACAD_REACTORS
330
47
102
}
330
47
100
AcDbScale
 70
     0
300
1:40
140
1.0
141
40.0
290
     0
  0
SCALE
  5
52
102
{ACAD_REACTORS
330
47
102
}
330
47
100
AcDbScale
 70
     0
300
1:50
140
1.0
141
50.0
290
     0
  0
SCALE
  5
53
102
{ACAD_REACTORS
330
47
102
}
330
47
100
AcDbScale
 70
     0
300
1:100
140
1.0
141
100.0
290
     0
  0
SCALE
  5
54
102
{ACAD_REACTORS
330
47
102
}
330
47
100
AcDbScale
 70
     0
300
2:1
140
2.0
141
1.0
290
     0
  0
SCALE
  5
55
102
{ACAD_REACTORS
330
47
102
}
330
47
100
AcDbScale
 70
     0
300
4:1
140
4.0
141
1.0
290
     0
  0
SCALE
  5
56
102
{ACAD_REACTORS
330
47
102
}
330
47
100
AcDbScale
 70
     0
300
8:1
140
8.0
141
1.0
290
     0
  0
SCALE
  5
57
102
{ACAD_REACTORS
330
47
102
}
330
47
100
AcDbScale
 70
     0
300
10:1
140
10.0
141
1.0
290
     0
  0
SCALE
  5
58
102
{ACAD_REACTORS
330
47
102
}
330
47
100
AcDbScale
 70
     0
300
100:1
140
100.0
141
1.0
290
     0
  0
SCALE
  5
59
102
{ACAD_REACTORS
330
47
102
}
330
47
100
AcDbScale
 70
     0
300
1/128" = 1'-0"
140
0.0078125
141
12.0
290
     0
  0
SCALE
  5
5A
102
{ACAD_REACTORS
330
47
102
}
330
47
100
AcDbScale
 70
     0
300
1/64" = 1'-0"
140
0.015625
141
12.0
290
     0
  0
SCALE
  5
5B
102
{ACAD_REACTORS
330
47
102
}
330
47
100
AcDbScale
 70
     0
300
1/32" = 1'-0"
140
0.03125
141
12.0
290
     0
  0
SCALE
  5
5C
102
{ACAD_REACTORS
330
47
102
}
330
47
100
AcDbScale
 70
     0
300
1/16" = 1'-0"
140
0.0625
141
12.0
290
     0
  0
SCALE
  5
5D
102
{ACAD_REACTORS
330
47
102
}
330
47
100
AcDbScale
 70
     0
300
3/32" = 1'-0"
140
0.09375
141
12.0
290
     0
  0
SCALE
  5
5E
102
{ACAD_REACTORS
330
47
102
}
330
47
100
AcDbScale
 70
     0
300
1/8" = 1'-0"
140
0.125
141
12.0
290
     0
  0
SCALE
  5
5F
102
{ACAD_REACTORS
330
47
102
}
330
47
100
AcDbScale
 70
     0
300
3/16" = 1'-0"
140
0.1875
141
12.0
290
     0
  0
SCALE
  5
60
102
{ACAD_REACTORS
330
47
102
}
330
47
100
AcDbScale
 70
     0
300
1/4" = 1'-0"
140
0.25
141
12.0
290
     0
  0
SCALE
  5
61
102
{ACAD_REACTORS
330
47
102
}
330
47
100
AcDbScale
 70
     0
300
3/8" = 1'-0"
140
0.375
141
12.0
290
     0
  0
SCALE
  5
62
102
{ACAD_REACTORS
330
47
102
}
330
47
100
AcDbScale
 70
     0
300
1/2" = 1'-0"
140
0.5
141
12.0
290
     0
  0
SCALE
  5
63
102
{ACAD_REACTORS
330
47
102
}
330
47
100
AcDbScale
 70
     0
300
3/4" = 1'-0"
140
0.75
141
12.0
290
     0
  0
SCALE
  5
64
102
{ACAD_REACTORS
330
47
102
}
330
47
100
AcDbScale
 70
     0
300
1" = 1'-0"
140
1.0
141
12.0
290
     0
  0
SCALE
  5
65
102
{ACAD_REACTORS
330
47
102
}
330
47
100
AcDbScale
 70
     0
300
1-1/2" = 1'-0"
140
1.5
141
12.0
290
     0
  0
SCALE
  5
66
102
{ACAD_REACTORS
330
47
102
}
330
47
100
AcDbScale
 70
     0
300
3" = 1'-0"
140
3.0
141
12.0
290
     0
  0
SCALE
  5
67
102
{ACAD_REACTORS
330
47
102
}
330
47
100
AcDbScale
 70
     0
300
6" = 1'-0"
140
6.0
141
12.0
290
     0
  0
SCALE
  5
68
102
{ACAD_REACTORS
330
47
102
}
330
47
100
AcDbScale
 70
     0
300
1'-0" = 1'-0"
140
12.0
141
12.0
290
     0
  0
ENDSEC
  0
EOF
