  0
SECTION
  2
HEADER
  9
$ACADVER
  1
AC1015
  9
$ACADMAINTVER
 70
     6
  9
$DWGCODEPAGE
  3
ANSI_1254
  9
$INSBASE
 10
0.0
 20
0.0
 30
0.0
  9
$EXTMIN
 10
0.0
 20
0.0
 30
0.0
  9
$EXTMAX
 10
279.4
 20
215.9
 30
0.0
  9
$LIMMIN
 10
0.0
 20
0.0
  9
$LIMMAX
 10
279.4
 20
215.9
  9
$ORTHOMODE
 70
     0
  9
$REGENMODE
 70
     1
  9
$FILLMODE
 70
     1
  9
$QTEXTMODE
 70
     0
  9
$MIRRTEXT
 70
     1
  9
$LTSCALE
 40
1.0
  9
$ATTMODE
 70
     1
  9
$TEXTSIZE
 40
3.5
  9
$TRACEWID
 40
1.0
  9
$TEXTSTYLE
  7
Standard
  9
$CLAYER
  8
0
  9
$CELTYPE
  6
ByLayer
  9
$CECOLOR
 62
   256
  9
$CELTSCALE
 40
1.0
  9
$DISPSILH
 70
     0
  9
$DIMSCALE
 40
1.0
  9
$DIMASZ
 40
3.5
  9
$DIMEXO
 40
1.0
  9
$DIMDLI
 40
3.75
  9
$DIMRND
 40
0.0
  9
$DIMDLE
 40
0.0
  9
$DIMEXE
 40
1.0
  9
$DIMTP
 40
0.0
  9
$DIMTM
 40
0.0
  9
$DIMTXT
 40
3.5
  9
$DIMCEN
 40
2.5
  9
$DIMTSZ
 40
0.0
  9
$DIMTOL
 70
     0
  9
$DIMLIM
 70
     0
  9
$DIMTIH
 70
     1
  9
$DIMTOH
 70
     1
  9
$DIMSE1
 70
     0
  9
$DIMSE2
 70
     0
  9
$DIMTAD
 70
     1
  9
$DIMZIN
 70
     0
  9
$DIMBLK
  1

  9
$DIMASO
 70
     1
  9
$DIMSHO
 70
     1
  9
$DIMPOST
  1

  9
$DIMAPOST
  1

  9
$DIMALT
 70
     0
  9
$DIMALTD
 70
     3
  9
$DIMALTF
 40
0.0393700787
  9
$DIMLFAC
 40
1.0
  9
$DIMTOFL
 70
     1
  9
$DIMTVP
 40
0.0
  9
$DIMTIX
 70
     0
  9
$DIMSOXD
 70
     0
  9
$DIMSAH
 70
     0
  9
$DIMBLK1
  1

  9
$DIMBLK2
  1

  9
$DIMSTYLE
  2
ISO-25
  9
$DIMCLRD
 70
     0
  9
$DIMCLRE
 70
     0
  9
$DIMCLRT
 70
     0
  9
$DIMTFAC
 40
1.0
  9
$DIMGAP
 40
1.524
  9
$DIMJUST
 70
     0
  9
$DIMSD1
 70
     0
  9
$DIMSD2
 70
     0
  9
$DIMTOLJ
 70
     0
  9
$DIMTZIN
 70
     0
  9
$DIMALTZ
 70
     0
  9
$DIMALTTZ
 70
     0
  9
$DIMUPT
 70
     0
  9
$DIMDEC
 70
     2
  9
$DIMTDEC
 70
     2
  9
$DIMALTU
 70
     2
  9
$DIMALTTD
 70
     3
  9
$DIMTXSTY
  7
Standard
  9
$DIMAUNIT
 70
     0
  9
$DIMADEC
 70
     2
  9
$DIMALTRND
 40
0.0
  9
$DIMAZIN
 70
     0
  9
$DIMDSEP
 70
    44
  9
$DIMATFIT
 70
     3
  9
$DIMFRAC
 70
     0
  9
$DIMLDRBLK
  1

  9
$DIMLUNIT
 70
     2
  9
$DIMLWD
 70
    -2
  9
$DIMLWE
 70
    -2
  9
$DIMTMOVE
 70
     0
  9
$LUNITS
 70
     2
  9
$LUPREC
 70
     2
  9
$SKETCHINC
 40
1.0
  9
$FILLETRAD
 40
10.0
  9
$AUNITS
 70
     0
  9
$AUPREC
 70
     2
  9
$MENU
  1
.
  9
$ELEVATION
 40
0.0
  9
$PELEVATION
 40
0.0
  9
$THICKNESS
 40
0.0
  9
$LIMCHECK
 70
     0
  9
$CHAMFERA
 40
0.0
  9
$CHAMFERB
 40
0.0
  9
$CHAMFERC
 40
0.0
  9
$CHAMFERD
 40
0.0
  9
$SKPOLY
 70
     0
  9
$TDCREATE
 40
2459741.604592558
  9
$TDUCREATE
 40
2459741.479592558
  9
$TDUPDATE
 40
2459741.604592732
  9
$TDUUPDATE
 40
2459741.479592732
  9
$TDINDWG
 40
0.0000000116
  9
$TDUSRTIMER
 40
0.0000000116
  9
$USRTIMER
 70
     1
  9
$ANGBASE
 50
0.0
  9
$ANGDIR
 70
     0
  9
$PDMODE
 70
     0
  9
$PDSIZE
 40
-1.0
  9
$PLINEWID
 40
0.0
  9
$SPLFRAME
 70
     0
  9
$SPLINETYPE
 70
     6
  9
$SPLINESEGS
 70
     8
  9
$HANDSEED
  5
123
  9
$SURFTAB1
 70
     6
  9
$SURFTAB2
 70
     6
  9
$SURFTYPE
 70
     6
  9
$SURFU
 70
     6
  9
$SURFV
 70
     6
  9
$UCSBASE
  2

  9
$UCSNAME
  2

  9
$UCSORG
 10
0.0
 20
0.0
 30
0.0
  9
$UCSXDIR
 10
1.0
 20
0.0
 30
0.0
  9
$UCSYDIR
 10
0.0
 20
1.0
 30
0.0
  9
$UCSORTHOREF
  2

  9
$UCSORTHOVIEW
 70
     0
  9
$UCSORGTOP
 10
0.0
 20
0.0
 30
0.0
  9
$UCSORGBOTTOM
 10
0.0
 20
0.0
 30
0.0
  9
$UCSORGLEFT
 10
0.0
 20
0.0
 30
0.0
  9
$UCSORGRIGHT
 10
0.0
 20
0.0
 30
0.0
  9
$UCSORGFRONT
 10
0.0
 20
0.0
 30
0.0
  9
$UCSORGBACK
 10
0.0
 20
0.0
 30
0.0
  9
$PUCSBASE
  2

  9
$PUCSNAME
  2

  9
$PUCSORG
 10
0.0
 20
0.0
 30
0.0
  9
$PUCSXDIR
 10
1.0
 20
0.0
 30
0.0
  9
$PUCSYDIR
 10
0.0
 20
1.0
 30
0.0
  9
$PUCSORTHOREF
  2

  9
$PUCSORTHOVIEW
 70
     0
  9
$PUCSORGTOP
 10
0.0
 20
0.0
 30
0.0
  9
$PUCSORGBOTTOM
 10
0.0
 20
0.0
 30
0.0
  9
$PUCSORGLEFT
 10
0.0
 20
0.0
 30
0.0
  9
$PUCSORGRIGHT
 10
0.0
 20
0.0
 30
0.0
  9
$PUCSORGFRONT
 10
0.0
 20
0.0
 30
0.0
  9
$PUCSORGBACK
 10
0.0
 20
0.0
 30
0.0
  9
$USERI1
 70
     0
  9
$USERI2
 70
     0
  9
$USERI3
 70
     0
  9
$USERI4
 70
     0
  9
$USERI5
 70
     0
  9
$USERR1
 40
0.0
  9
$USERR2
 40
0.0
  9
$USERR3
 40
0.0
  9
$USERR4
 40
0.0
  9
$USERR5
 40
0.0
  9
$WORLDVIEW
 70
     1
  9
$SHADEDGE
 70
     3
  9
$SHADEDIF
 70
    70
  9
$TILEMODE
 70
     1
  9
$MAXACTVP
 70
    64
  9
$PINSBASE
 10
0.0
 20
0.0
 30
0.0
  9
$PLIMCHECK
 70
     0
  9
$PEXTMIN
 10
1.0000000000E+20
 20
1.0000000000E+20
 30
1.0000000000E+20
  9
$PEXTMAX
 10
-1.0000000000E+20
 20
-1.0000000000E+20
 30
-1.0000000000E+20
  9
$PLIMMIN
 10
0.0
 20
0.0
  9
$PLIMMAX
 10
420.0
 20
297.0
  9
$UNITMODE
 70
     0
  9
$VISRETAIN
 70
     1
  9
$PLINEGEN
 70
     0
  9
$PSLTSCALE
 70
     1
  9
$TREEDEPTH
 70
  3020
  9
$CMLSTYLE
  2
Standard
  9
$CMLJUST
 70
     0
  9
$CMLSCALE
 40
20.0
  9
$PROXYGRAPHICS
 70
     1
  9
$MEASUREMENT
 70
     1
  9
$CELWEIGHT
370
    -1
  9
$ENDCAPS
280
     0
  9
$JOINSTYLE
280
     0
  9
$LWDISPLAY
290
     1
  9
$INSUNITS
 70
     4
  9
$HYPERLINKBASE
  1

  9
$STYLESHEET
  1

  9
$XEDIT
290
     1
  9
$CEPSNTYPE
380
     0
  9
$PSTYLEMODE
290
     1
  9
$FINGERPRINTGUID
  2
{18cf99b0-a2e1-47a4-9929-021dab4d4d72}
  9
$VERSIONGUID
  2
{FAEB1C32-E019-11D5-929B-00C0DF256EC4}
  9
$EXTNAMES
290
     1
  9
$PSVPSCALE
 40
0.0
  9
$OLESTARTUP
290
     0
  0
ENDSEC
  0
SECTION
  2
CLASSES
  0
CLASS
  1
ACDBDICTIONARYWDFLT
  2
AcDbDictionaryWithDefault
  3
ObjectDBX Classes
 90
        0
280
     0
281
     0
  0
CLASS
  1
VISUALSTYLE
  2
AcDbVisualStyle
  3
ObjectDBX Classes
 90
     4095
280
     0
281
     0
  0
CLASS
  1
MATERIAL
  2
AcDbMaterial
  3
ObjectDBX Classes
 90
     1153
280
     0
281
     0
  0
CLASS
  1
SCALE
  2
AcDbScale
  3
ObjectDBX Classes
 90
     1153
280
     0
281
     0
  0
CLASS
  1
TABLESTYLE
  2
AcDbTableStyle
  3
ObjectDBX Classes
 90
     4095
280
     0
281
     0
  0
CLASS
  1
MLEADERSTYLE
  2
AcDbMLeaderStyle
  3
ACDB_MLEADERSTYLE_CLASS
 90
     4095
280
     0
281
     0
  0
CLASS
  1
SUN
  2
AcDbSun
  3
SCENEOE
 90
     1153
280
     0
281
     0
  0
CLASS
  1
ACDBPLACEHOLDER
  2
AcDbPlaceHolder
  3
ObjectDBX Classes
 90
        0
280
     0
281
     0
  0
CLASS
  1
LAYOUT
  2
AcDbLayout
  3
ObjectDBX Classes
 90
        0
280
     0
281
     0
  0
ENDSEC
  0
SECTION
  2
TABLES
  0
TABLE
  2
VPORT
  5
8
330
0
100
AcDbSymbolTable
 70
     1
  0
VPORT
  5
29
330
8
100
AcDbSymbolTableRecord
100
AcDbViewportTableRecord
  2
*Active
 70
     0
 10
0.0
 20
0.0
 11
1.0
 21
1.0
 12
139.7
 22
107.95
 13
0.0
 23
0.0
 14
10.0
 24
10.0
 15
10.0
 25
10.0
 16
0.0
 26
0.0
 36
1.0
 17
0.0
 27
0.0
 37
0.0
 40
215.9
 41
1.2941176471
 42
50.0
 43
0.0
 44
0.0
 50
0.0
 51
0.0
 71
     0
 72
  2000
 73
     1
 74
     3
 75
     0
 76
     0
 77
     0
 78
     0
281
     0
 65
     1
110
0.0
120
0.0
130
0.0
111
1.0
121
0.0
131
0.0
112
0.0
122
1.0
132
0.0
 79
     0
146
0.0
  0
ENDTAB
  0
TABLE
  2
LTYPE
  5
5
330
0
100
AcDbSymbolTable
 70
     6
  0
LTYPE
  5
14
330
5
100
AcDbSymbolTableRecord
100
AcDbLinetypeTableRecord
  2
ByBlock
 70
     0
  3

 72
    65
 73
     0
 40
0.0
  0
LTYPE
  5
15
330
5
100
AcDbSymbolTableRecord
100
AcDbLinetypeTableRecord
  2
ByLayer
 70
     0
  3

 72
    65
 73
     0
 40
0.0
  0
LTYPE
  5
16
330
5
100
AcDbSymbolTableRecord
100
AcDbLinetypeTableRecord
  2
Continuous
 70
     0
  3
Solid line
 72
    65
 73
     0
 40
0.0
  0
LTYPE
  5
6E
330
5
100
AcDbSymbolTableRecord
100
AcDbLinetypeTableRecord
  2
HIDDEN
 70
     0
  3
Hidden __ __ __ __ __ __ __ __ __ __ __ __ __ __
 72
    65
 73
     2
 40
1.905
 49
1.27
 74
     0
 49
-0.635
 74
     0
  0
LTYPE
  5
6F
330
5
100
AcDbSymbolTableRecord
100
AcDbLinetypeTableRecord
  2
PHANTOM
 70
     0
  3
Phantom ______  __  __  ______  __  __  ______
 72
    65
 73
     6
 40
12.7
 49
6.35
 74
     0
 49
-1.27
 74
     0
 49
1.27
 74
     0
 49
-1.27
 74
     0
 49
1.27
 74
     0
 49
-1.27
 74
     0
  0
LTYPE
  5
70
330
5
100
AcDbSymbolTableRecord
100
AcDbLinetypeTableRecord
  2
CENTER
 70
     0
  3
Center ____ _ ____ _ ____ _ ____ _ ____ _ ____
 72
    65
 73
     4
 40
10.16
 49
6.35
 74
     0
 49
-1.27
 74
     0
 49
1.27
 74
     0
 49
-1.27
 74
     0
  0
LTYPE
  5
71
330
5
100
AcDbSymbolTableRecord
100
AcDbLinetypeTableRecord
  2
CENTERX2
 70
     0
  3
Center (2x) ________  __  ________  __  _____
 72
    65
 73
     4
 40
20.32
 49
12.7
 74
     0
 49
-2.54
 74
     0
 49
2.54
 74
     0
 49
-2.54
 74
     0
  0
LTYPE
  5
72
330
5
100
AcDbSymbolTableRecord
100
AcDbLinetypeTableRecord
  2
DOT2
 70
     0
  3
Dot (.5x) ........................................
 72
    65
 73
     2
 40
0.635
 49
0.0
 74
     0
 49
-0.635
 74
     0
  0
ENDTAB
  0
TABLE
  2
LAYER
  5
2
330
0
100
AcDbSymbolTable
 70
    17
  0
LAYER
  5
10
330
2
100
AcDbSymbolTableRecord
100
AcDbLayerTableRecord
  2
0
 70
     0
 62
     7
  6
Continuous
370
    -3
390
F
  0
LAYER
  5
73
330
2
100
AcDbSymbolTableRecord
100
AcDbLayerTableRecord
  2
FORMAT
 70
     0
 62
     7
  6
Continuous
370
    -3
390
F
  0
LAYER
  5
74
330
2
100
AcDbSymbolTableRecord
100
AcDbLayerTableRecord
  2
YARDIMCI_GEOMETRI
 70
     0
 62
    -6
  6
Continuous
290
     0
370
    -3
390
F
  0
LAYER
  5
75
330
2
100
AcDbSymbolTableRecord
100
AcDbLayerTableRecord
  2
SAYFA_CERCEVESI
 70
     0
 62
     7
  6
Continuous
370
    25
390
F
  0
LAYER
  5
76
330
2
100
AcDbSymbolTableRecord
100
AcDbLayerTableRecord
  2
ANTET
 70
     0
 62
     7
  6
Continuous
370
    -3
390
F
  0
LAYER
  5
77
330
2
100
AcDbSymbolTableRecord
100
AcDbLayerTableRecord
  2
OLCU
 70
     0
 62
   150
  6
Continuous
370
    -3
390
F
  0
LAYER
  5
78
330
2
100
AcDbSymbolTableRecord
100
AcDbLayerTableRecord
  2
METIN
 70
     0
 62
    96
  6
Continuous
370
    -3
390
F
  0
LAYER
  5
79
330
2
100
AcDbSymbolTableRecord
100
AcDbLayerTableRecord
  2
BALON
 70
     0
 62
     5
  6
Continuous
370
    -3
390
F
  0
LAYER
  5
7A
330
2
100
AcDbSymbolTableRecord
100
AcDbLayerTableRecord
  2
VURGU
 70
     0
 62
     7
  6
Continuous
370
    -3
390
F
  0
LAYER
  5
7B
330
2
100
AcDbSymbolTableRecord
100
AcDbLayerTableRecord
  2
SILIK
 70
     0
 62
     7
  6
Continuous
370
    -3
390
F
  0
LAYER
  5
7C
330
2
100
AcDbSymbolTableRecord
100
AcDbLayerTableRecord
  2
MODEL
 70
     0
 62
     7
  6
Continuous
370
    -3
390
F
  0
LAYER
  5
7D
330
2
100
AcDbSymbolTableRecord
100
AcDbLayerTableRecord
  2
DETAYLANDıRMA
 70
     0
 62
   190
  6
Continuous
370
    -3
390
F
  0
LAYER
  5
7E
330
2
100
AcDbSymbolTableRecord
100
AcDbLayerTableRecord
  2
TOLERANS
 70
     0
 62
   230
  6
Continuous
370
    -3
390
F
  0
LAYER
  5
7F
330
2
100
AcDbSymbolTableRecord
100
AcDbLayerTableRecord
  2
MERKEZ_CIZGILERI
 70
     0
 62
    30
  6
Continuous
370
    -3
390
F
  0
LAYER
  5
80
330
2
100
AcDbSymbolTableRecord
100
AcDbLayerTableRecord
  2
KESIT-DETAY_CIZGILERI
 70
     0
 62
     7
  6
Continuous
370
    -3
390
F
  0
LAYER
  5
81
330
2
100
AcDbSymbolTableRecord
100
AcDbLayerTableRecord
  2
\U+041E\U+0421\U+0415\U+0412\U+042B\U+0415
 70
     0
 62
     7
  6
Continuous
370
    -3
390
F
  0
LAYER
  5
82
330
2
100
AcDbSymbolTableRecord
100
AcDbLayerTableRecord
  2
\U+0412\U+041E\U+0414\U+042F\U+041D\U+042B\U+0415_\U+0417\U+041D\U+0410\U+041A\U+0418
 70
     0
 62
    11
  6
Continuous
370
    -3
390
F
  0
ENDTAB
  0
TABLE
  2
STYLE
  5
3
330
0
100
AcDbSymbolTable
 70
     1
  0
STYLE
  5
11
330
3
100
AcDbSymbolTableRecord
100
AcDbTextStyleTableRecord
  2
Standard
 70
     0
 40
0.0
 41
1.0
 50
0.0
 71
     0
 42
3.5
  3
txt
  4

  0
ENDTAB
  0
TABLE
  2
VIEW
  5
6
330
0
100
AcDbSymbolTable
 70
     0
  0
ENDTAB
  0
TABLE
  2
UCS
  5
7
330
0
100
AcDbSymbolTable
 70
     0
  0
ENDTAB
  0
TABLE
  2
APPID
  5
9
330
0
100
AcDbSymbolTable
 70
     1
  0
APPID
  5
12
330
9
100
AcDbSymbolTableRecord
100
AcDbRegAppTableRecord
  2
ACAD
 70
     0
  0
ENDTAB
  0
TABLE
  2
DIMSTYLE
  5
A
330
0
100
AcDbSymbolTable
 70
     1
100
AcDbDimStyleTable
  0
DIMSTYLE
105
27
330
A
100
AcDbSymbolTableRecord
100
AcDbDimStyleTableRecord
  2
ISO-25
 70
     0
 41
2.5
 42
0.625
 43
3.75
 44
1.25
 73
     0
 74
     0
 77
     1
 78
     8
140
2.5
141
2.5
143
0.0393700787
147
0.625
171
     3
172
     1
178
     0
271
     2
272
     2
274
     3
278
    44
283
     0
284
     8
340
11
  0
ENDTAB
  0
TABLE
  2
BLOCK_RECORD
  5
1
330
0
100
AcDbSymbolTable
 70
     5
  0
BLOCK_RECORD
  5
1F
330
1
100
AcDbSymbolTableRecord
100
AcDbBlockTableRecord
  2
*Model_Space
340
22
  0
BLOCK_RECORD
  5
1B
330
1
100
AcDbSymbolTableRecord
100
AcDbBlockTableRecord
  2
*Paper_Space
340
1E
  0
BLOCK_RECORD
  5
23
330
1
100
AcDbSymbolTableRecord
100
AcDbBlockTableRecord
  2
*Paper_Space0
340
26
  0
BLOCK_RECORD
  5
A5
330
1
100
AcDbSymbolTableRecord
100
AcDbBlockTableRecord
  2
SW_CENTERMARKSYMBOL_0
340
0
102
{BLKREFS
331
B0
102
}
  0
BLOCK_RECORD
  5
C1
330
1
100
AcDbSymbolTableRecord
100
AcDbBlockTableRecord
  2
SW_CENTERMARKSYMBOL_1
340
0
102
{BLKREFS
331
CC
102
}
  0
BLOCK_RECORD
  5
DE
330
1
100
AcDbSymbolTableRecord
100
AcDbBlockTableRecord
  2
SW_CENTERMARKSYMBOL_2
340
0
102
{BLKREFS
331
E9
102
}
  0
BLOCK_RECORD
  5
F9
330
1
100
AcDbSymbolTableRecord
100
AcDbBlockTableRecord
  2
SW_CENTERMARKSYMBOL_3
340
0
102
{BLKREFS
331
104
102
}
  0
ENDTAB
  0
ENDSEC
  0
SECTION
  2
BLOCKS
  0
BLOCK
  5
20
330
1F
100
AcDbEntity
  8
0
100
AcDbBlockBegin
  2
*Model_Space
 70
     0
 10
0.0
 20
0.0
 30
0.0
  3
*Model_Space
  1

  0
ENDBLK
  5
21
330
1F
100
AcDbEntity
  8
0
100
AcDbBlockEnd
  0
BLOCK
  5
1C
330
1B
100
AcDbEntity
 67
     1
  8
0
100
AcDbBlockBegin
  2
*Paper_Space
 70
     0
 10
0.0
 20
0.0
 30
0.0
  3
*Paper_Space
  1

  0
ENDBLK
  5
1D
330
1B
100
AcDbEntity
 67
     1
  8
0
100
AcDbBlockEnd
  0
BLOCK
  5
24
330
23
100
AcDbEntity
  8
0
100
AcDbBlockBegin
  2
*Paper_Space0
 70
     0
 10
0.0
 20
0.0
 30
0.0
  3
*Paper_Space0
  1

  0
ENDBLK
  5
25
330
23
100
AcDbEntity
  8
0
100
AcDbBlockEnd
  0
BLOCK
  5
A6
330
A5
100
AcDbEntity
  8
0
100
AcDbBlockBegin
  2
SW_CENTERMARKSYMBOL_0
 70
     0
 10
0.0
 20
0.0
 30
0.0
  3
SW_CENTERMARKSYMBOL_0
  1

  0
LINE
  5
A8
330
A5
100
AcDbEntity
  8
FORMAT
 62
     0
100
AcDbLine
 10
0.0
 20
0.0
 30
0.0
 11
0.0
 21
2.5
 31
0.0
  0
LINE
  5
A9
330
A5
100
AcDbEntity
  8
FORMAT
 62
     0
100
AcDbLine
 10
0.0
 20
0.0
 30
0.0
 11
-2.5
 21
0.0
 31
0.0
  0
LINE
  5
AA
330
A5
100
AcDbEntity
  8
FORMAT
 62
     0
100
AcDbLine
 10
0.0
 20
0.0
 30
0.0
 11
0.0
 21
-2.5
 31
0.0
  0
LINE
  5
AB
330
A5
100
AcDbEntity
  8
FORMAT
 62
     0
100
AcDbLine
 10
0.0
 20
0.0
 30
0.0
 11
2.5
 21
0.0
 31
0.0
  0
LINE
  5
AC
330
A5
100
AcDbEntity
  8
FORMAT
 62
     0
100
AcDbLine
 10
0.0
 20
5.0
 30
0.0
 11
0.0
 21
113.5
 31
0.0
  0
LINE
  5
AD
330
A5
100
AcDbEntity
  8
FORMAT
 62
     0
100
AcDbLine
 10
-5.0
 20
0.0
 30
0.0
 11
-113.5
 21
0.0
 31
0.0
  0
LINE
  5
AE
330
A5
100
AcDbEntity
  8
FORMAT
 62
     0
100
AcDbLine
 10
0.0
 20
-5.0
 30
0.0
 11
0.0
 21
-113.5
 31
0.0
  0
LINE
  5
AF
330
A5
100
AcDbEntity
  8
FORMAT
 62
     0
100
AcDbLine
 10
5.0
 20
0.0
 30
0.0
 11
113.5
 21
0.0
 31
0.0
  0
ENDBLK
  5
A7
330
A5
100
AcDbEntity
  8
0
100
AcDbBlockEnd
  0
BLOCK
  5
C2
330
C1
100
AcDbEntity
  8
0
100
AcDbBlockBegin
  2
SW_CENTERMARKSYMBOL_1
 70
     0
 10
0.0
 20
0.0
 30
0.0
  3
SW_CENTERMARKSYMBOL_1
  1

  0
LINE
  5
C4
330
C1
100
AcDbEntity
  8
FORMAT
 62
     0
100
AcDbLine
 10
0.0
 20
0.0
 30
0.0
 11
0.0
 21
2.5
 31
0.0
  0
LINE
  5
C5
330
C1
100
AcDbEntity
  8
FORMAT
 62
     0
100
AcDbLine
 10
0.0
 20
0.0
 30
0.0
 11
-2.5
 21
0.0
 31
0.0
  0
LINE
  5
C6
330
C1
100
AcDbEntity
  8
FORMAT
 62
     0
100
AcDbLine
 10
0.0
 20
0.0
 30
0.0
 11
0.0
 21
-2.5
 31
0.0
  0
LINE
  5
C7
330
C1
100
AcDbEntity
  8
FORMAT
 62
     0
100
AcDbLine
 10
0.0
 20
0.0
 30
0.0
 11
2.5
 21
0.0
 31
0.0
  0
LINE
  5
C8
330
C1
100
AcDbEntity
  8
FORMAT
 62
     0
100
AcDbLine
 10
0.0
 20
5.0
 30
0.0
 11
0.0
 21
113.5
 31
0.0
  0
LINE
  5
C9
330
C1
100
AcDbEntity
  8
FORMAT
 62
     0
100
AcDbLine
 10
-5.0
 20
0.0
 30
0.0
 11
-113.5
 21
0.0
 31
0.0
  0
LINE
  5
CA
330
C1
100
AcDbEntity
  8
FORMAT
 62
     0
100
AcDbLine
 10
0.0
 20
-5.0
 30
0.0
 11
0.0
 21
-113.5
 31
0.0
  0
LINE
  5
CB
330
C1
100
AcDbEntity
  8
FORMAT
 62
     0
100
AcDbLine
 10
5.0
 20
0.0
 30
0.0
 11
113.5
 21
0.0
 31
0.0
  0
ENDBLK
  5
C3
330
C1
100
AcDbEntity
  8
0
100
AcDbBlockEnd
  0
BLOCK
  5
DF
330
DE
100
AcDbEntity
  8
0
100
AcDbBlockBegin
  2
SW_CENTERMARKSYMBOL_2
 70
     0
 10
0.0
 20
0.0
 30
0.0
  3
SW_CENTERMARKSYMBOL_2
  1

  0
LINE
  5
E1
330
DE
100
AcDbEntity
  8
FORMAT
 62
     0
100
AcDbLine
 10
0.0
 20
0.0
 30
0.0
 11
0.0
 21
2.5
 31
0.0
  0
LINE
  5
E2
330
DE
100
AcDbEntity
  8
FORMAT
 62
     0
100
AcDbLine
 10
0.0
 20
0.0
 30
0.0
 11
-2.5
 21
0.0
 31
0.0
  0
LINE
  5
E3
330
DE
100
AcDbEntity
  8
FORMAT
 62
     0
100
AcDbLine
 10
0.0
 20
0.0
 30
0.0
 11
0.0
 21
-2.5
 31
0.0
  0
LINE
  5
E4
330
DE
100
AcDbEntity
  8
FORMAT
 62
     0
100
AcDbLine
 10
0.0
 20
0.0
 30
0.0
 11
2.5
 21
0.0
 31
0.0
  0
LINE
  5
E5
330
DE
100
AcDbEntity
  8
FORMAT
 62
     0
100
AcDbLine
 10
0.0
 20
5.0
 30
0.0
 11
0.0
 21
113.5
 31
0.0
  0
LINE
  5
E6
330
DE
100
AcDbEntity
  8
FORMAT
 62
     0
100
AcDbLine
 10
-5.0
 20
0.0
 30
0.0
 11
-113.5
 21
0.0
 31
0.0
  0
LINE
  5
E7
330
DE
100
AcDbEntity
  8
FORMAT
 62
     0
100
AcDbLine
 10
0.0
 20
-5.0
 30
0.0
 11
0.0
 21
-113.5
 31
0.0
  0
LINE
  5
E8
330
DE
100
AcDbEntity
  8
FORMAT
 62
     0
100
AcDbLine
 10
5.0
 20
0.0
 30
0.0
 11
113.5
 21
0.0
 31
0.0
  0
ENDBLK
  5
E0
330
DE
100
AcDbEntity
  8
0
100
AcDbBlockEnd
  0
BLOCK
  5
FA
330
F9
100
AcDbEntity
  8
0
100
AcDbBlockBegin
  2
SW_CENTERMARKSYMBOL_3
 70
     0
 10
0.0
 20
0.0
 30
0.0
  3
SW_CENTERMARKSYMBOL_3
  1

  0
LINE
  5
FC
330
F9
100
AcDbEntity
  8
FORMAT
 62
     0
100
AcDbLine
 10
0.0
 20
0.0
 30
0.0
 11
0.0
 21
2.5
 31
0.0
  0
LINE
  5
FD
330
F9
100
AcDbEntity
  8
FORMAT
 62
     0
100
AcDbLine
 10
0.0
 20
0.0
 30
0.0
 11
-2.5
 21
0.0
 31
0.0
  0
LINE
  5
FE
330
F9
100
AcDbEntity
  8
FORMAT
 62
     0
100
AcDbLine
 10
0.0
 20
0.0
 30
0.0
 11
0.0
 21
-2.5
 31
0.0
  0
LINE
  5
FF
330
F9
100
AcDbEntity
  8
FORMAT
 62
     0
100
AcDbLine
 10
0.0
 20
0.0
 30
0.0
 11
2.5
 21
0.0
 31
0.0
  0
LINE
  5
100
330
F9
100
AcDbEntity
  8
FORMAT
 62
     0
100
AcDbLine
 10
0.0
 20
5.0
 30
0.0
 11
0.0
 21
113.5
 31
0.0
  0
LINE
  5
101
330
F9
100
AcDbEntity
  8
FORMAT
 62
     0
100
AcDbLine
 10
-5.0
 20
0.0
 30
0.0
 11
-113.5
 21
0.0
 31
0.0
  0
LINE
  5
102
330
F9
100
AcDbEntity
  8
FORMAT
 62
     0
100
AcDbLine
 10
0.0
 20
-5.0
 30
0.0
 11
0.0
 21
-113.5
 31
0.0
  0
LINE
  5
103
330
F9
100
AcDbEntity
  8
FORMAT
 62
     0
100
AcDbLine
 10
5.0
 20
0.0
 30
0.0
 11
113.5
 21
0.0
 31
0.0
  0
ENDBLK
  5
FB
330
F9
100
AcDbEntity
  8
0
100
AcDbBlockEnd
  0
ENDSEC
  0
SECTION
  2
ENTITIES
  0
LINE
  5
83
330
1F
100
AcDbEntity
  8
0
  6
Continuous
 62
     7
370
    25
100
AcDbLine
 10
6.8054276901
 20
52.4200564222
 30
0.0
 11
6.8054276901
 21
-31.5799435778
 31
0.0
  0
LINE
  5
84
330
1F
100
AcDbEntity
  8
0
  6
Continuous
 62
     7
370
    25
100
AcDbLine
 10
228.8054276901
 20
-31.5799435778
 30
0.0
 11
228.8054276901
 21
52.4200564222
 31
0.0
  0
ARC
  5
85
330
1F
100
AcDbEntity
  8
0
  6
Continuous
 62
     7
370
    25
100
AcDbCircle
 10
230.8054276901
 20
52.4200564222
 30
0.0
 40
2.0
100
AcDbArc
 50
90.0
 51
180.0
  0
ARC
  5
86
330
1F
100
AcDbEntity
  8
0
  6
Continuous
 62
     7
370
    25
100
AcDbCircle
 10
230.8054276901
 20
52.4200564222
 30
0.0
 40
224.0
100
AcDbArc
 50
90.0
 51
180.0
  0
LINE
  5
87
330
1F
100
AcDbEntity
  8
0
  6
Continuous
 62
     7
370
    25
100
AcDbLine
 10
314.8054276901
 20
276.4200564222
 30
0.0
 11
230.8054276901
 21
276.4200564222
 31
0.0
  0
LINE
  5
88
330
1F
100
AcDbEntity
  8
0
  6
Continuous
 62
     7
370
    25
100
AcDbLine
 10
230.8054276901
 20
54.4200564222
 30
0.0
 11
314.8054276901
 21
54.4200564222
 31
0.0
  0
CIRCLE
  5
89
330
1F
100
AcDbEntity
  8
0
  6
Continuous
 62
     7
370
    25
100
AcDbCircle
 10
117.8054276901
 20
-21.5799435778
 30
0.0
 40
5.0
  0
CIRCLE
  5
8A
330
1F
100
AcDbEntity
  8
0
  6
Continuous
 62
     7
370
    25
100
AcDbCircle
 10
117.8054276901
 20
-21.5799435778
 30
0.0
 40
7.0
  0
CIRCLE
  5
8B
330
1F
100
AcDbEntity
  8
0
  6
Continuous
 62
     7
370
    25
100
AcDbCircle
 10
304.8054276901
 20
165.4200564222
 30
0.0
 40
7.0
  0
CIRCLE
  5
8C
330
1F
100
AcDbEntity
  8
0
  6
Continuous
 62
     7
370
    25
100
AcDbCircle
 10
304.8054276901
 20
165.4200564222
 30
0.0
 40
5.0
  0
LINE
  5
8D
330
1F
100
AcDbEntity
  8
0
  6
Continuous
 62
     7
370
    25
100
AcDbLine
 10
117.8054276901
 20
-31.5799435778
 30
0.0
 11
228.8054276901
 21
-31.5799435778
 31
0.0
  0
LINE
  5
8E
330
1F
100
AcDbEntity
  8
0
  6
Continuous
 62
     7
370
    25
100
AcDbLine
 10
6.8054276901
 20
-31.5799435778
 30
0.0
 11
117.8054276901
 21
-31.5799435778
 31
0.0
  0
LINE
  5
8F
330
1F
100
AcDbEntity
  8
0
  6
Continuous
 62
     7
370
    25
100
AcDbLine
 10
314.8054276901
 20
165.4200564222
 30
0.0
 11
314.8054276901
 21
54.4200564222
 31
0.0
  0
LINE
  5
90
330
1F
100
AcDbEntity
  8
0
  6
Continuous
 62
     7
370
    25
100
AcDbLine
 10
314.8054276901
 20
276.4200564222
 30
0.0
 11
314.8054276901
 21
165.4200564222
 31
0.0
  0
LINE
  5
91
330
1F
100
AcDbEntity
  8
0
  6
Continuous
 62
     1
370
    25
100
AcDbLine
 10
117.8054276901
 20
52.4200564222
 30
0.0
 11
228.8054276901
 21
52.4200564222
 31
0.0
  0
LINE
  5
92
330
1F
100
AcDbEntity
  8
0
  6
Continuous
 62
     1
370
    25
100
AcDbLine
 10
6.8054276901
 20
52.4200564222
 30
0.0
 11
117.8054276901
 21
52.4200564222
 31
0.0
  0
LINE
  5
93
330
1F
100
AcDbEntity
  8
0
  6
Continuous
 62
     1
370
    25
100
AcDbLine
 10
230.8054276901
 20
165.4200564222
 30
0.0
 11
230.8054276901
 21
54.4200564222
 31
0.0
  0
LINE
  5
94
330
1F
100
AcDbEntity
  8
0
  6
Continuous
 62
     1
370
    25
100
AcDbLine
 10
230.8054276901
 20
276.4200564222
 30
0.0
 11
230.8054276901
 21
165.4200564222
 31
0.0
  0
LINE
  5
95
330
1F
100
AcDbEntity
  8
0
  6
Continuous
 62
     7
370
    25
100
AcDbLine
 10
-348.9465161621
 20
172.4200564222
 30
0.0
 11
-364.16692379
 21
172.4200564222
 31
0.0
  0
LINE
  5
96
330
1F
100
AcDbEntity
  8
0
  6
Continuous
 62
     7
370
    25
100
AcDbLine
 10
-364.16692379
 20
158.4200564222
 30
0.0
 11
-348.9515621199
 21
158.4200564222
 31
0.0
  0
LINE
  5
97
330
1F
100
AcDbEntity
  8
0
  6
Continuous
 62
     7
370
    25
100
AcDbLine
 10
-349.16692379
 20
158.4200564222
 30
0.0
 11
-349.16692379
 21
52.4200564222
 31
0.0
  0
LINE
  5
98
330
1F
100
AcDbEntity
  8
0
  6
Continuous
 62
     7
370
    25
100
AcDbLine
 10
-127.16692379
 20
52.4200564222
 30
0.0
 11
-127.16692379
 21
165.4200564222
 31
0.0
  0
LINE
  5
99
330
1F
100
AcDbEntity
  8
0
  6
Continuous
 62
     7
370
    25
100
AcDbLine
 10
-349.16692379
 20
-28.5799435778
 30
0.0
 11
-349.16692379
 21
-31.5799435778
 31
0.0
  0
LINE
  5
9A
330
1F
100
AcDbEntity
  8
0
  6
Continuous
 62
     7
370
    25
100
AcDbLine
 10
-349.16692379
 20
52.4200564222
 30
0.0
 11
-349.16692379
 21
-14.6660984875
 31
0.0
  0
LINE
  5
9B
330
1F
100
AcDbEntity
  8
0
  6
Continuous
 62
     7
370
    25
100
AcDbLine
 10
-127.16692379
 20
-31.5799435778
 30
0.0
 11
-127.16692379
 21
52.4200564222
 31
0.0
  0
LINE
  5
9C
330
1F
100
AcDbEntity
  8
0
  6
Continuous
 62
     7
370
    25
100
AcDbLine
 10
-349.1615640642
 20
-14.5799435778
 30
0.0
 11
-364.16692379
 21
-14.5799435778
 31
0.0
  0
LINE
  5
9D
330
1F
100
AcDbEntity
  8
0
  6
Continuous
 62
     7
370
    25
100
AcDbLine
 10
-364.16692379
 20
-28.5799435778
 30
0.0
 11
-349.16692379
 21
-28.5799435778
 31
0.0
  0
CIRCLE
  5
9E
330
1F
100
AcDbEntity
  8
0
  6
Continuous
 62
     7
370
    25
100
AcDbCircle
 10
-238.16692379
 20
165.4200564222
 30
0.0
 40
111.0
  0
CIRCLE
  5
9F
330
1F
100
AcDbEntity
  8
0
  6
Continuous
 62
     7
370
    25
100
AcDbCircle
 10
-238.16692379
 20
165.4200564222
 30
0.0
 40
90.0
  0
LINE
  5
A0
330
1F
100
AcDbEntity
  8
0
  6
Continuous
 62
     7
370
    25
100
AcDbLine
 10
-364.16692379
 20
172.4200564222
 30
0.0
 11
-364.16692379
 21
158.4200564222
 31
0.0
  0
SPLINE
  5
A1
330
1F
100
AcDbEntity
  8
0
  6
Continuous
 62
     7
370
    25
100
AcDbSpline
210
0.0
220
0.0
230
1.0
 70
     8
 71
     3
 72
    17
 73
    13
 74
     0
 42
0.00000001
 43
0.00000001
 40
0.0
 40
0.0
 40
0.0
 40
0.0
 40
0.1072253850889127
 40
0.2144456283796233
 40
0.3217994094231807
 40
0.4292412857441817
 40
0.5365376693027538
 40
0.6436820067138217
 40
0.7509050306303416
 40
0.8583145242374592
 40
0.9657275924828744
 40
1.0
 40
1.0
 40
1.0
 40
1.0
 10
-349.1669237899788
 20
-28.57994357775913
 30
0.0
 10
-349.1619142252391
 20
-28.50270532021279
 30
0.0
 10
-349.1518953359843
 20
-28.34823250894019
 30
0.0
 10
-349.0822246527383
 20
-27.14425836369331
 30
0.0
 10
-349.0046787863951
 20
-25.36990892509801
 30
0.0
 10
-348.9488074639169
 20
-23.15228885847754
 30
0.0
 10
-348.9404817130466
 20
-20.76128389232823
 30
0.0
 10
-348.9826209390884
 20
-18.46750416679339
 30
0.0
 10
-349.0579127773814
 20
-16.5090135391332
 30
0.0
 10
-349.1293572034278
 20
-15.17513122259724
 30
0.0
 10
-349.1693301246573
 20
-14.54126890667554
 30
0.0
 10
-349.1630606186772
 20
-14.64178465635314
 30
0.0
 10
-349.1615440831062
 20
-14.66609848750839
 30
0.0
  0
LINE
  5
A2
330
1F
100
AcDbEntity
  8
0
  6
Continuous
 62
     7
370
    25
100
AcDbLine
 10
-349.16692379
 20
-31.5799435778
 30
0.0
 11
-127.16692379
 21
-31.5799435778
 31
0.0
  0
LINE
  5
A3
330
1F
100
AcDbEntity
  8
0
  6
Continuous
 62
     7
370
    25
100
AcDbLine
 10
-364.16692379
 20
-14.5799435778
 30
0.0
 11
-364.16692379
 21
-28.5799435778
 31
0.0
  0
LINE
  5
A4
330
1F
100
AcDbEntity
  8
0
  6
Continuous
 62
     1
370
    25
100
AcDbLine
 10
-349.16692379
 20
52.4200564222
 30
0.0
 11
-127.16692379
 21
52.4200564222
 31
0.0
  0
INSERT
  5
B0
330
1F
100
AcDbEntity
  8
FORMAT
 62
     7
100
AcDbBlockReference
  2
SW_CENTERMARKSYMBOL_0
 10
-238.16692379
 20
165.4200564222
 30
0.0
  0
LINE
  5
B1
330
1F
100
AcDbEntity
  8
0
  6
Continuous
 62
     7
370
    25
100
AcDbLine
 10
124.8054276901
 20
621.6554717859
 30
0.0
 11
124.8054276901
 21
636.870833456
 31
0.0
  0
LINE
  5
B2
330
1F
100
AcDbEntity
  8
0
  6
Continuous
 62
     7
370
    25
100
AcDbLine
 10
110.8054276901
 20
636.870833456
 30
0.0
 11
110.8054276901
 21
621.6504258281
 31
0.0
  0
LINE
  5
B3
330
1F
100
AcDbEntity
  8
0
  6
Continuous
 62
     7
370
    25
100
AcDbLine
 10
230.8054276901
 20
621.870833456
 30
0.0
 11
124.8054276901
 21
621.870833456
 31
0.0
  0
LINE
  5
B4
330
1F
100
AcDbEntity
  8
0
  6
Continuous
 62
     7
370
    25
100
AcDbLine
 10
117.8054276901
 20
399.870833456
 30
0.0
 11
230.8054276901
 21
399.870833456
 31
0.0
  0
LINE
  5
B5
330
1F
100
AcDbEntity
  8
0
  6
Continuous
 62
     7
370
    25
100
AcDbLine
 10
297.8054276901
 20
621.870833456
 30
0.0
 11
230.8054276901
 21
621.870833456
 31
0.0
  0
LINE
  5
B6
330
1F
100
AcDbEntity
  8
0
  6
Continuous
 62
     7
370
    25
100
AcDbLine
 10
314.8054276901
 20
621.870833456
 30
0.0
 11
311.7192727804
 21
621.870833456
 31
0.0
  0
LINE
  5
B7
330
1F
100
AcDbEntity
  8
0
  6
Continuous
 62
     7
370
    25
100
AcDbLine
 10
230.8054276901
 20
399.870833456
 30
0.0
 11
314.8054276901
 21
399.870833456
 31
0.0
  0
LINE
  5
B8
330
1F
100
AcDbEntity
  8
0
  6
Continuous
 62
     7
370
    25
100
AcDbLine
 10
311.8054276901
 20
621.8654737302
 30
0.0
 11
311.8054276901
 21
636.870833456
 31
0.0
  0
LINE
  5
B9
330
1F
100
AcDbEntity
  8
0
  6
Continuous
 62
     7
370
    25
100
AcDbLine
 10
297.8054276901
 20
636.870833456
 30
0.0
 11
297.8054276901
 21
621.870833456
 31
0.0
  0
CIRCLE
  5
BA
330
1F
100
AcDbEntity
  8
0
  6
Continuous
 62
     7
370
    25
100
AcDbCircle
 10
117.8054276901
 20
510.870833456
 30
0.0
 40
90.00000000000011
  0
CIRCLE
  5
BB
330
1F
100
AcDbEntity
  8
0
  6
Continuous
 62
     7
370
    25
100
AcDbCircle
 10
117.8054276901
 20
510.870833456
 30
0.0
 40
111.0
  0
LINE
  5
BC
330
1F
100
AcDbEntity
  8
0
  6
Continuous
 62
     7
370
    25
100
AcDbLine
 10
124.8054276901
 20
636.870833456
 30
0.0
 11
110.8054276901
 21
636.870833456
 31
0.0
  0
SPLINE
  5
BD
330
1F
100
AcDbEntity
  8
0
  6
Continuous
 62
     7
370
    25
100
AcDbSpline
210
0.0
220
0.0
230
1.0
 70
     8
 71
     3
 72
    17
 73
    13
 74
     0
 42
0.00000001
 43
0.00000001
 40
0.0
 40
0.0
 40
0.0
 40
0.0
 40
0.1072253850889136
 40
0.2144456283796254
 40
0.3217994094231811
 40
0.4292412857441822
 40
0.5365376693027543
 40
0.6436820067138226
 40
0.7509050306303415
 40
0.8583145242374586
 40
0.9657275924828743
 40
1.0
 40
1.0
 40
1.0
 40
1.0
 10
297.8054276901332
 20
621.8708334559864
 30
0.0
 10
297.8826659476795
 20
621.8658238912467
 30
0.0
 10
298.0371387589521
 20
621.8558050019919
 30
0.0
 10
299.241112904199
 20
621.7861343187459
 30
0.0
 10
301.0154623427943
 20
621.7085884524028
 30
0.0
 10
303.2330824094148
 20
621.6527171299246
 30
0.0
 10
305.624087375564
 20
621.6443913790542
 30
0.0
 10
307.9178671010989
 20
621.686530605096
 30
0.0
 10
309.8763577287591
 20
621.7618224433891
 30
0.0
 10
311.2102400452951
 20
621.8332668694354
 30
0.0
 10
311.8441023612169
 20
621.873239790665
 30
0.0
 10
311.7435866115392
 20
621.8669702846847
 30
0.0
 10
311.7192727803839
 20
621.8654537491137
 30
0.0
  0
LINE
  5
BE
330
1F
100
AcDbEntity
  8
0
  6
Continuous
 62
     7
370
    25
100
AcDbLine
 10
314.8054276901
 20
621.870833456
 30
0.0
 11
314.8054276901
 21
399.870833456
 31
0.0
  0
LINE
  5
BF
330
1F
100
AcDbEntity
  8
0
  6
Continuous
 62
     7
370
    25
100
AcDbLine
 10
311.8054276901
 20
636.870833456
 30
0.0
 11
297.8054276901
 21
636.870833456
 31
0.0
  0
LINE
  5
C0
330
1F
100
AcDbEntity
  8
0
  6
Continuous
 62
     1
370
    25
100
AcDbLine
 10
230.8054276901
 20
621.870833456
 30
0.0
 11
230.8054276901
 21
399.870833456
 31
0.0
  0
INSERT
  5
CC
330
1F
100
AcDbEntity
  8
FORMAT
 62
     7
100
AcDbBlockReference
  2
SW_CENTERMARKSYMBOL_1
 10
117.8054276901
 20
510.870833456
 30
0.0
  0
LINE
  5
CD
330
1F
100
AcDbEntity
  8
0
  6
Continuous
 62
     7
370
    25
100
AcDbLine
 10
477.6306956346
 20
52.4200564222
 30
0.0
 11
477.6306956346
 21
-31.5799435778
 31
0.0
  0
LINE
  5
CE
330
1F
100
AcDbEntity
  8
0
  6
Continuous
 62
     7
370
    25
100
AcDbLine
 10
699.6306956346
 20
-14.6660984875
 30
0.0
 11
699.6306956346
 21
52.4200564222
 31
0.0
  0
LINE
  5
CF
330
1F
100
AcDbEntity
  8
0
  6
Continuous
 62
     7
370
    25
100
AcDbLine
 10
699.6306956346
 20
-31.5799435778
 30
0.0
 11
699.6306956346
 21
-28.5799435778
 31
0.0
  0
LINE
  5
D0
330
1F
100
AcDbEntity
  8
0
  6
Continuous
 62
     7
370
    25
100
AcDbLine
 10
699.6306956346
 20
52.4200564222
 30
0.0
 11
699.6306956346
 21
165.4200564222
 31
0.0
  0
LINE
  5
D1
330
1F
100
AcDbEntity
  8
0
  6
Continuous
 62
     7
370
    25
100
AcDbLine
 10
477.6306956346
 20
165.4200564222
 30
0.0
 11
477.6306956346
 21
52.4200564222
 31
0.0
  0
LINE
  5
D2
330
1F
100
AcDbEntity
  8
0
  6
Continuous
 62
     7
370
    25
100
AcDbLine
 10
699.6306956346
 20
-28.5799435778
 30
0.0
 11
714.6306956346
 21
-28.5799435778
 31
0.0
  0
LINE
  5
D3
330
1F
100
AcDbEntity
  8
0
  6
Continuous
 62
     7
370
    25
100
AcDbLine
 10
714.6306956346
 20
-14.5799435778
 30
0.0
 11
699.6253359088
 21
-14.5799435778
 31
0.0
  0
LINE
  5
D4
330
1F
100
AcDbEntity
  8
0
  6
Continuous
 62
     7
370
    25
100
AcDbLine
 10
699.6306956346
 20
158.4200564222
 30
0.0
 11
714.6306956346
 21
158.4200564222
 31
0.0
  0
LINE
  5
D5
330
1F
100
AcDbEntity
  8
0
  6
Continuous
 62
     7
370
    25
100
AcDbLine
 10
714.6306956346
 20
172.4200564222
 30
0.0
 11
699.4102880067
 21
172.4200564222
 31
0.0
  0
LINE
  5
D6
330
1F
100
AcDbEntity
  8
0
  6
Continuous
 62
     7
370
    25
100
AcDbLine
 10
477.6306956346
 20
-31.5799435778
 30
0.0
 11
699.6306956346
 21
-31.5799435778
 31
0.0
  0
ARC
  5
D7
330
1F
100
AcDbEntity
  8
0
  6
Continuous
 62
     7
370
    25
100
AcDbCircle
 10
810.5078836705
 20
-21.580149976
 30
0.0
 40
111.0979204900418
100
AcDbArc
 50
176.4319572296
 51
183.6123489247
  0
ARC
  5
D8
330
1F
100
AcDbEntity
  8
0
  6
Continuous
 62
     7
370
    25
100
AcDbCircle
 10
588.6306956346
 20
165.4200564222
 30
0.0
 40
111.0
100
AcDbArc
 50
0.0
 51
180.0
  0
LINE
  5
D9
330
1F
100
AcDbEntity
  8
0
  6
Continuous
 62
     7
370
    25
100
AcDbLine
 10
714.6306956346
 20
-21.5799435778
 30
0.0
 11
714.6306956346
 21
-14.5799435778
 31
0.0
  0
LINE
  5
DA
330
1F
100
AcDbEntity
  8
0
  6
Continuous
 62
     7
370
    25
100
AcDbLine
 10
714.6306956346
 20
-28.5799435778
 30
0.0
 11
714.6306956346
 21
-21.5799435778
 31
0.0
  0
LINE
  5
DB
330
1F
100
AcDbEntity
  8
0
  6
Continuous
 62
     7
370
    25
100
AcDbLine
 10
714.6306956346
 20
165.4200564222
 30
0.0
 11
714.6306956346
 21
172.4200564222
 31
0.0
  0
LINE
  5
DC
330
1F
100
AcDbEntity
  8
0
  6
Continuous
 62
     7
370
    25
100
AcDbLine
 10
714.6306956346
 20
158.4200564222
 30
0.0
 11
714.6306956346
 21
165.4200564222
 31
0.0
  0
LINE
  5
DD
330
1F
100
AcDbEntity
  8
0
  6
Continuous
 62
     1
370
    25
100
AcDbLine
 10
477.6306956346
 20
52.4200564222
 30
0.0
 11
699.6306956346
 21
52.4200564222
 31
0.0
  0
INSERT
  5
E9
330
1F
100
AcDbEntity
  8
FORMAT
 62
     7
100
AcDbBlockReference
  2
SW_CENTERMARKSYMBOL_2
 10
588.6306956346
 20
165.4200564222
 30
0.0
  0
LINE
  5
EA
330
1F
100
AcDbEntity
  8
0
  6
Continuous
 62
     7
370
    25
100
AcDbLine
 10
117.8054276901
 20
-393.6059606665
 30
0.0
 11
230.8054276901
 21
-393.6059606665
 31
0.0
  0
LINE
  5
EB
330
1F
100
AcDbEntity
  8
0
  6
Continuous
 62
     7
370
    25
100
AcDbLine
 10
230.8054276901
 20
-171.6059606665
 30
0.0
 11
117.8054276901
 21
-171.6059606665
 31
0.0
  0
LINE
  5
EC
330
1F
100
AcDbEntity
  8
0
  6
Continuous
 62
     7
370
    25
100
AcDbLine
 10
314.8054276901
 20
-171.6059606665
 30
0.0
 11
230.8054276901
 21
-171.6059606665
 31
0.0
  0
LINE
  5
ED
330
1F
100
AcDbEntity
  8
0
  6
Continuous
 62
     7
370
    25
100
AcDbLine
 10
311.7192727804
 20
-393.6059606665
 30
0.0
 11
314.8054276901
 21
-393.6059606665
 31
0.0
  0
LINE
  5
EE
330
1F
100
AcDbEntity
  8
0
  6
Continuous
 62
     7
370
    25
100
AcDbLine
 10
230.8054276901
 20
-393.6059606665
 30
0.0
 11
297.8054276901
 21
-393.6059606665
 31
0.0
  0
LINE
  5
EF
330
1F
100
AcDbEntity
  8
0
  6
Continuous
 62
     7
370
    25
100
AcDbLine
 10
297.8054276901
 20
-393.6059606665
 30
0.0
 11
297.8054276901
 21
-408.6059606665
 31
0.0
  0
LINE
  5
F0
330
1F
100
AcDbEntity
  8
0
  6
Continuous
 62
     7
370
    25
100
AcDbLine
 10
311.8054276901
 20
-408.6059606665
 30
0.0
 11
311.8054276901
 21
-393.6006009407
 31
0.0
  0
LINE
  5
F1
330
1F
100
AcDbEntity
  8
0
  6
Continuous
 62
     7
370
    25
100
AcDbLine
 10
110.8054276901
 20
-393.3855530385
 30
0.0
 11
110.8054276901
 21
-408.6059606665
 31
0.0
  0
LINE
  5
F2
330
1F
100
AcDbEntity
  8
0
  6
Continuous
 62
     7
370
    25
100
AcDbLine
 10
124.8054276901
 20
-408.6059606665
 30
0.0
 11
124.8054276901
 21
-393.6059606665
 31
0.0
  0
ARC
  5
F3
330
1F
100
AcDbEntity
  8
0
  6
Continuous
 62
     7
370
    25
100
AcDbCircle
 10
117.8054276901
 20
-282.6059606665
 30
0.0
 40
111.0
100
AcDbArc
 50
90.0
 51
270.0
  0
ARC
  5
F4
330
1F
100
AcDbEntity
  8
0
  6
Continuous
 62
     7
370
    25
100
AcDbCircle
 10
304.8052212919
 20
-504.4831487026
 30
0.0
 40
111.097920490265
100
AcDbArc
 50
86.4319572296
 51
93.6123489247
  0
LINE
  5
F5
330
1F
100
AcDbEntity
  8
0
  6
Continuous
 62
     7
370
    25
100
AcDbLine
 10
314.8054276901
 20
-171.6059606665
 30
0.0
 11
314.8054276901
 21
-393.6059606665
 31
0.0
  0
LINE
  5
F6
330
1F
100
AcDbEntity
  8
0
  6
Continuous
 62
     7
370
    25
100
AcDbLine
 10
297.8054276901
 20
-408.6059606665
 30
0.0
 11
311.8054276901
 21
-408.6059606665
 31
0.0
  0
LINE
  5
F7
330
1F
100
AcDbEntity
  8
0
  6
Continuous
 62
     7
370
    25
100
AcDbLine
 10
110.8054276901
 20
-408.6059606665
 30
0.0
 11
124.8054276901
 21
-408.6059606665
 31
0.0
  0
LINE
  5
F8
330
1F
100
AcDbEntity
  8
0
  6
Continuous
 62
     1
370
    25
100
AcDbLine
 10
230.8054276901
 20
-171.6059606665
 30
0.0
 11
230.8054276901
 21
-393.6059606665
 31
0.0
  0
INSERT
  5
104
330
1F
100
AcDbEntity
  8
FORMAT
 62
     7
100
AcDbBlockReference
  2
SW_CENTERMARKSYMBOL_3
 10
117.8054276901
 20
-282.6059606665
 30
0.0
  0
LINE
  5
105
330
1F
100
AcDbEntity
  8
0
  6
Continuous
 62
     7
370
    25
100
AcDbLine
 10
627.6904838277
 20
-87.7202578465
 30
0.0
 11
568.2935142081
 21
-122.009398543
 31
0.0
  0
LINE
  5
106
330
1F
100
AcDbEntity
  8
0
  6
Continuous
 62
     7
370
    25
100
AcDbLine
 10
679.2844935307
 20
-314.2722459916
 30
0.0
 11
738.6814631504
 21
-279.983105295
 31
0.0
  0
LINE
  5
107
330
1F
100
AcDbEntity
  8
0
  6
Continuous
 62
     7
370
    25
100
AcDbLine
 10
432.8859375953
 20
-356.5369923284
 30
0.0
 11
432.8859375953
 21
-425.1264205268
 31
0.0
  0
LINE
  5
108
330
1F
100
AcDbEntity
  8
0
  6
Continuous
 62
     7
370
    25
100
AcDbLine
 10
654.8859375953
 20
-425.1264205268
 30
0.0
 11
654.8859375953
 21
-356.5369923284
 31
0.0
  0
SPLINE
  5
109
330
1F
100
AcDbEntity
  8
0
  6
Continuous
 62
     7
370
    25
100
AcDbSpline
210
0.0
220
0.0
230
1.0
 70
     8
 71
     3
 72
    36
 73
    32
 74
     0
 42
0.00000001
 43
0.00000001
 40
0.0
 40
0.0
 40
0.0
 40
0.0
 40
0.0364904385369045
 40
0.0719290055779764
 40
0.1065076960852828
 40
0.1404659074413207
 40
0.1740200955820418
 40
0.2073583631970849
 40
0.2406378268188235
 40
0.2739828315782666
 40
0.3074609102227204
 40
0.3411314481862653
 40
0.3750314675728181
 40
0.4091693969024413
 40
0.4435291252708176
 40
0.478074915539495
 40
0.5127570293689616
 40
0.5475178576172447
 40
0.5822805769438965
 40
0.6169903387142285
 40
0.6516091304949897
 40
0.6861193966081318
 40
0.7205298258824172
 40
0.7548803067753266
 40
0.7892457204261438
 40
0.823732938559199
 40
0.858449402780703
 40
0.8935676773415544
 40
0.9292947013226787
 40
0.9658679387560577
 40
1.0
 40
1.0
 40
1.0
 40
1.0
 10
654.8855684086255
 20
-356.5889460207001
 30
0.0
 10
654.8861719811841
 20
-356.5621474768815
 30
0.0
 10
654.8873617277499
 20
-356.5093228826836
 30
0.0
 10
654.9195321761382
 20
-356.0670695202562
 30
0.0
 10
654.9994836951109
 20
-355.3723464726788
 30
0.0
 10
655.1454234556045
 20
-354.4137711811229
 30
0.0
 10
655.3729601345237
 20
-353.2121287200448
 30
0.0
 10
655.6959988381387
 20
-351.7814718207505
 30
0.0
 10
656.1263474251213
 20
-350.1399259571931
 30
0.0
 10
656.6733860521769
 20
-348.3078681768117
 30
0.0
 10
657.3437119271632
 20
-346.3086918659246
 30
0.0
 10
658.1408410611486
 20
-344.1684652188945
 30
0.0
 10
659.0651796706782
 20
-341.9152386609539
 30
0.0
 10
660.1136540952724
 20
-339.5792065278006
 30
0.0
 10
661.2794453906366
 20
-337.1924666591005
 30
0.0
 10
662.5519075767572
 20
-334.7883993055754
 30
0.0
 10
663.9166272888224
 20
-332.4008991339289
 30
0.0
 10
665.3553880412219
 20
-330.0639075422009
 30
0.0
 10
666.8467146046553
 20
-327.8100651752354
 30
0.0
 10
668.3664882195634
 20
-325.6696359291913
 30
0.0
 10
669.8888981920253
 20
-323.6693039389293
 30
0.0
 10
671.3869194880878
 20
-321.8318604005229
 30
0.0
 10
672.8329391106239
 20
-320.1757927136065
 30
0.0
 10
674.1993852086819
 20
-318.7150076800203
 30
0.0
 10
675.4591043946015
 20
-317.4588808552328
 30
0.0
 10
676.5855403306641
 20
-316.4125964109032
 30
0.0
 10
677.5527229963095
 20
-315.5772392251966
 30
0.0
 10
678.3385554775529
 20
-314.9481876599921
 30
0.0
 10
678.9133392334967
 20
-314.5226113983613
 30
0.0
 10
679.2714326312629
 20
-314.2810379238188
 30
0.0
 10
679.3039311921142
 20
-314.2615630901632
 30
0.0
 10
679.319619448724
 20
-314.2521618680839
 30
0.0
  0
SPLINE
  5
10A
330
1F
100
AcDbEntity
  8
0
  6
Continuous
 62
     7
370
    25
100
AcDbSpline
210
0.0
220
0.0
230
1.0
 70
     8
 71
     3
 72
    42
 73
    38
 74
     0
 42
0.00000001
 43
0.00000001
 40
0.0
 40
0.0
 40
0.0
 40
0.0
 40
0.0187910288031078
 40
0.047806244855685
 40
0.0768835578860261
 40
0.1060891424481915
 40
0.1353795466648736
 40
0.1647129199474745
 40
0.1940460831673204
 40
0.2233526888783946
 40
0.2526133746233989
 40
0.2818156518441605
 40
0.3109533206396151
 40
0.3400256523185649
 40
0.3690364914008574
 40
0.3979933806826009
 40
0.4269067678988153
 40
0.4557893175061211
 40
0.4846553272085528
 40
0.5135202341680111
 40
0.5424001876197061
 40
0.5713063851595334
 40
0.600255157518827
 40
0.6292626915140772
 40
0.6583444134122208
 40
0.6875144831333404
 40
0.7167851853588175
 40
0.7461661925849963
 40
0.7756636860562637
 40
0.8052793408783911
 40
0.8350092151877023
 40
0.864842632200976
 40
0.89476120571922
 40
0.9247382225676036
 40
0.9547271977717062
 40
0.9846815646560605
 40
1.0
 40
1.0
 40
1.0
 40
1.0
 10
568.2935142080794
 20
-122.0093985430452
 30
0.0
 10
566.8177569673044
 20
-122.8751938758164
 30
0.0
 10
563.0632838759552
 20
-125.0778632510305
 30
0.0
 10
557.1337602089206
 20
-128.8485072073171
 30
0.0
 10
550.5212665252776
 20
-133.364481756904
 30
0.0
 10
544.0207208169576
 20
-138.1418638332352
 30
0.0
 10
537.6356224354099
 20
-143.1686633079055
 30
0.0
 10
531.3801878709179
 20
-148.4324009939851
 30
0.0
 10
525.2661339243049
 20
-153.9185290924871
 30
0.0
 10
519.3034716444096
 20
-159.6132787557559
 30
0.0
 10
513.4998789568801
 20
-165.5039278136836
 30
0.0
 10
507.8616631991019
 20
-171.5785715301552
 30
0.0
 10
502.3939689371585
 20
-177.8261968855817
 30
0.0
 10
497.1010411565642
 20
-184.2367217705663
 30
0.0
 10
491.9864772473436
 20
-190.8009587245774
 30
0.0
 10
487.0534569274762
 20
-197.5105455784721
 30
0.0
 10
482.3049390605974
 20
-204.3578566152642
 30
0.0
 10
477.743824640471
 20
-211.3359081446795
 30
0.0
 10
473.3730889676504
 20
-218.4382652494171
 30
0.0
 10
469.1958884580371
 20
-225.6589524324553
 30
0.0
 10
465.2158902158433
 20
-232.9919212442298
 30
0.0
 10
461.4370509466758
 20
-240.4313757669034
 30
0.0
 10
457.8636617227618
 20
-247.9717170960708
 30
0.0
 10
454.5002148834736
 20
-255.6079316896378
 30
0.0
 10
451.3516941420493
 20
-263.3350499489678
 30
0.0
 10
448.4236313938728
 20
-271.1479930561145
 30
0.0
 10
445.7221469596471
 20
-279.0414039812956
 30
0.0
 10
443.2539743284725
 20
-287.0094402100055
 30
0.0
 10
441.0264651907863
 20
-295.0455239106412
 30
0.0
 10
439.0475442011584
 20
-303.1420533878834
 30
0.0
 10
437.3256661797206
 20
-311.2900801497943
 30
0.0
 10
435.8695045249279
 20
-319.4790029485187
 30
0.0
 10
434.6883144141592
 20
-327.6962204676755
 30
0.0
 10
433.789494442066
 20
-335.9261252162186
 30
0.0
 10
433.1862941950429
 20
-344.149887235078
 30
0.0
 10
432.9179831336398
 20
-351.0206832288487
 30
0.0
 10
432.8940392206644
 20
-355.1423810336709
 30
0.0
 10
432.8859375953011
 20
-356.5369923283737
 30
0.0
  0
LINE
  5
10B
330
1F
100
AcDbEntity
  8
0
  6
Continuous
 62
     7
370
    25
100
AcDbLine
 10
601.2041617436
 20
-136.6059853261
 30
0.0
 11
590.5191668119
 21
-130.4376690484
 31
0.0
  0
LINE
  5
10C
330
1F
100
AcDbEntity
  8
0
  6
Continuous
 62
     7
370
    25
100
AcDbLine
 10
583.5197356835
 20
-142.5623531217
 30
0.0
 11
594.2040969108
 21
-148.7303035697
 31
0.0
  0
LINE
  5
10D
330
1F
100
AcDbEntity
  8
0
  6
Continuous
 62
     7
370
    25
100
AcDbLine
 10
468.9748239156
 20
-365.6330621543
 30
0.0
 11
458.29019873
 21
-359.4649593264
 31
0.0
  0
LINE
  5
10E
330
1F
100
AcDbEntity
  8
0
  6
Continuous
 62
     7
370
    25
100
AcDbLine
 10
451.2907676016
 20
-371.5896433998
 30
0.0
 11
461.9757971656
 21
-377.7579796704
 31
0.0
  0
LWPOLYLINE
  5
10F
330
1F
100
AcDbEntity
  8
0
  6
Continuous
 62
     7
370
    25
100
AcDbPolyline
 90
      114
 70
   128
 43
0.0
 10
604.6971207773
 20
-138.5410313646
 10
604.8184230502
 20
-143.6481335107
 10
605.1819549304
 20
-148.8795025199
 10
605.7865927617
 20
-154.2189685304
 10
606.6304676433
 20
-159.6500275587
 10
607.7109712063
 20
-165.1558925126
 10
609.024763676
 20
-170.719545079
 10
610.5677841952
 20
-176.3237883268
 10
612.335263376
 20
-181.9512998612
 10
614.3217380414
 20
-187.5846853666
 10
616.5210681121
 20
-193.2065323712
 10
618.926455585
 20
-198.799464068
 10
621.5304655451
 20
-204.3461930258
 10
624.325049147
 20
-209.8295746231
 10
627.3015684928
 20
-215.2326600418
 10
630.4508233318
 20
-220.5387486543
 10
633.7630794979
 20
-225.731439645
 10
637.228098997
 20
-230.7946827035
 10
640.8351716523
 20
-235.7128276357
 10
644.5731482092
 20
-240.4706727374
 10
648.4304747962
 20
-245.0535117822
 10
652.3952286378
 20
-249.4471794771
 10
656.4551549073
 20
-253.6380952471
 10
660.5977046051
 20
-257.6133052117
 10
664.8100733476
 20
-261.3605222247
 10
669.0792409443
 20
-264.8681638532
 10
673.3920116429
 20
-268.1253881778
 10
677.7350549162
 20
-271.1221273047
 10
682.0949466666
 20
-273.8491184852
 10
686.4582107183
 20
-276.2979327457
 10
690.8113604722
 20
-278.4610009418
 10
695.140940592
 20
-280.3316371534
 10
699.4335685935
 20
-281.9040593515
 10
703.6759762098
 20
-283.1734072689
 10
707.8550504018
 20
-284.1357574241
 10
711.9578738908
 20
-284.7881352479
 10
715.9717650846
 20
-285.1285242779
 10
719.8843172753
 20
-285.1558723909
 10
723.6834369886
 20
-284.8700950556
 10
727.357381363
 20
-284.2720755934
 10
730.894794447
 20
-283.3636624481
 10
734.2847422995
 20
-282.1476634728
 10
737.516746786
 20
-280.6278372504
 10
740.5808179657
 20
-278.8088814769
 10
743.4674849704
 20
-276.6964184403
 10
746.1678252777
 20
-274.2969776427
 10
748.6734922904
 20
-271.6179756181
 10
750.9767411354
 20
-268.6676930084
 10
753.0704526026
 20
-265.4552489679
 10
754.9481551498
 20
-261.9905729771
 10
756.604044906
 20
-258.2843741509
 10
758.0330036108
 20
-254.3481081375
 10
759.2306144349
 20
-250.1939417095
 10
760.1931756317
 20
-245.8347151574
 10
760.9177119798
 20
-241.2839026006
 10
761.4019839789
 20
-236.5555703399
 10
761.6444947719
 20
-231.6643333794
 10
761.6444947719
 20
-226.6253102521
 10
761.4019839789
 20
-221.4540762898
 10
760.9177119798
 20
-216.1666154804
 10
760.1931756317
 20
-210.7792710621
 10
759.2306144349
 20
-205.3086950079
 10
758.0330036108
 20
-199.7717965548
 10
756.604044906
 20
-194.1856899386
 10
754.9481551498
 20
-188.5676414948
 10
753.0704526026
 20
-182.9350162891
 10
750.9767411354
 20
-177.3052244433
 10
748.6734922904
 20
-171.6956673213
 10
746.1678252777
 20
-166.1236837427
 10
743.4674849704
 20
-160.6064963895
 10
740.5808179657
 20
-155.1611585715
 10
737.516746786
 20
-149.8045015159
 10
734.2847422995
 20
-144.5530823427
 10
730.894794447
 20
-139.4231328876
 10
727.357381363
 20
-134.4305095303
 10
723.6834369886
 20
-129.5906441837
 10
719.8843172753
 20
-124.918496594
 10
715.9717650846
 20
-120.4285081018
 10
711.9578738908
 20
-116.1345570041
 10
707.8550504018
 20
-112.0499156578
 10
703.6759762098
 20
-108.1872094551
 10
699.4335685935
 20
-104.5583777996
 10
695.140940592
 20
-101.1746372019
 10
690.8113604722
 20
-98.0464466103
 10
686.4582107183
 20
-95.1834750826
 10
682.0949466666
 20
-92.5945718999
 10
677.7350549162
 20
-90.2877392134
 10
673.3920116429
 20
-88.2701073109
 10
669.0792409443
 20
-86.5479125768
 10
664.8100733476
 20
-85.1264782164
 10
660.5977046051
 20
-84.0101978018
 10
656.4551549073
 20
-83.2025216919
 10
652.3952286378
 20
-82.7059463673
 10
648.4304747962
 20
-82.5220067137
 10
644.5731482092
 20
-82.6512712781
 10
640.8351716523
 20
-83.0933405112
 10
637.228098997
 20
-83.8468480023
 10
633.7630794979
 20
-84.9094647029
 10
630.4508233318
 20
-86.2779061256
 10
627.3015684928
 20
-87.9479424966
 10
624.325049147
 20
-89.914411829
 10
621.5304655451
 20
-92.1712358789
 10
618.926455585
 20
-94.7114389324
 10
616.5210681121
 20
-97.5271693674
 10
614.3217380414
 20
-100.6097239227
 10
612.335263376
 20
-103.9495745986
 10
610.5677841952
 20
-107.5363981082
 10
609.024763676
 20
-111.3591077855
 10
607.7109712063
 20
-115.405887854
 10
606.6304676433
 20
-119.6642299484
 10
605.7865927617
 20
-124.1209717773
 10
605.1819549304
 20
-128.7623378072
 10
604.8184230502
 20
-133.5739818416
 10
604.6971207773
 20
-138.5410313646
  0
LWPOLYLINE
  5
110
330
1F
100
AcDbEntity
  8
0
  6
Continuous
 62
     7
370
    25
100
AcDbPolyline
 90
      103
 70
   128
 43
0.0
 10
619.5463631823
 20
-147.1133165387
 10
619.6670666023
 20
-142.6589678352
 10
620.0287189931
 20
-138.3608772044
 10
620.6299484831
 20
-134.2353487764
 10
621.4684744031
 20
-130.2980320935
 10
622.5411159369
 20
-126.5638627466
 10
623.8438041879
 20
-123.0470057191
 10
625.3715976132
 20
-119.7608016542
 10
627.1187007692
 20
-116.7177162497
 10
629.0784862951
 20
-113.9292929708
 10
631.2435200531
 20
-111.406109262
 10
633.6055893286
 20
-109.1577364235
 10
636.1557339839
 20
-107.1927033035
 10
638.8842804466
 20
-105.5184639458
 10
641.7808784056
 20
-104.1413693138
 10
644.8345400725
 20
-103.0666431989
 10
648.0336818627
 20
-102.2983624056
 10
651.3661683357
 20
-101.839441286
 10
654.8193582286
 20
-101.6916206851
 10
658.3801524096
 20
-101.855461337
 10
662.0350435666
 20
-102.3303417382
 10
665.7701674455
 20
-103.1144605045
 10
669.5713554421
 20
-104.2048432049
 10
673.4241883483
 20
-105.5973536444
 10
677.3140510492
 20
-107.2867095538
 10
681.2261879632
 20
-109.2665026275
 10
685.1457590149
 20
-111.5292228324
 10
689.0578959289
 20
-114.0662868955
 10
692.9477586298
 20
-116.868070864
 10
696.800591536
 20
-119.9239466115
 10
700.6017795326
 20
-123.2223221546
 10
704.3369034115
 20
-126.7506856251
 10
707.9917945685
 20
-130.4956527317
 10
711.5525887495
 20
-134.4430175316
 10
715.0057786424
 20
-138.577806318
 10
718.3382651154
 20
-142.8843344206
 10
721.5374069056
 20
-147.3462657034
 10
724.5910685725
 20
-151.9466745326
 10
727.4876665315
 20
-156.6681099818
 10
730.2162129942
 20
-161.4926620291
 10
732.7663576495
 20
-166.4020294961
 10
735.128426925
 20
-171.3775894703
 10
737.293460683
 20
-176.4004679486
 10
739.2532462089
 20
-181.4516114324
 10
741.0003493649
 20
-186.5118592043
 10
742.5281427902
 20
-191.5620160112
 10
743.8308310412
 20
-196.5829248787
 10
744.903472575
 20
-201.5555397795
 10
745.741998495
 20
-206.4609978821
 10
746.343227985
 20
-211.2806911036
 10
746.7048803758
 20
-215.9963366968
 10
746.8255837958
 20
-220.5900466028
 10
746.7048803758
 20
-225.0443953063
 10
746.343227985
 20
-229.3424859371
 10
745.741998495
 20
-233.4680143651
 10
744.903472575
 20
-237.405331048
 10
743.8308310412
 20
-241.1395003949
 10
742.5281427902
 20
-244.6563574224
 10
741.0003493649
 20
-247.9425614873
 10
739.2532462089
 20
-250.9856468918
 10
737.293460683
 20
-253.7740701707
 10
735.128426925
 20
-256.2972538795
 10
732.7663576495
 20
-258.545626718
 10
730.2162129942
 20
-260.510659838
 10
727.4876665315
 20
-262.1848991957
 10
724.5910685725
 20
-263.5619938277
 10
721.5374069056
 20
-264.6367199426
 10
718.3382651154
 20
-265.4050007359
 10
715.0057786424
 20
-265.8639218555
 10
711.5525887495
 20
-266.0117424564
 10
707.9917945685
 20
-265.8479018045
 10
704.3369034115
 20
-265.3730214033
 10
700.6017795326
 20
-264.588902637
 10
696.800591536
 20
-263.4985199366
 10
692.9477586298
 20
-262.1060094971
 10
689.0578959289
 20
-260.4166535877
 10
685.1457590149
 20
-258.436860514
 10
681.2261879632
 20
-256.1741403091
 10
677.3140510492
 20
-253.637076246
 10
673.4241883483
 20
-250.8352922775
 10
669.5713554421
 20
-247.77941653
 10
665.7701674455
 20
-244.4810409869
 10
662.0350435666
 20
-240.9526775164
 10
658.3801524096
 20
-237.2077104098
 10
654.8193582286
 20
-233.2603456099
 10
651.3661683357
 20
-229.1255568235
 10
648.0336818627
 20
-224.8190287209
 10
644.8345400725
 20
-220.3570974381
 10
641.7808784056
 20
-215.7566886089
 10
638.8842804466
 20
-211.0352531597
 10
636.1557339839
 20
-206.2107011124
 10
633.6055893286
 20
-201.3013336454
 10
631.2435200531
 20
-196.3257736712
 10
629.0784862951
 20
-191.3028951929
 10
627.1187007692
 20
-186.2517517091
 10
625.3715976132
 20
-181.1915039372
 10
623.8438041879
 20
-176.1413471303
 10
622.5411159369
 20
-171.1204382628
 10
621.4684744031
 20
-166.147823362
 10
620.6299484831
 20
-161.2423652594
 10
620.0287189931
 20
-156.4226720379
 10
619.6670666023
 20
-151.7070264447
 10
619.5463631823
 20
-147.1133165387
  0
LINE
  5
111
330
1F
100
AcDbEntity
  8
0
  6
Continuous
 62
     7
370
    25
100
AcDbLine
 10
679.2844935307
 20
-314.2722459916
 30
0.0
 11
679.3978759612
 21
-314.2065237449
 31
0.0
  0
SPLINE
  5
112
330
1F
100
AcDbEntity
  8
0
  6
Continuous
 62
     7
370
    25
100
AcDbSpline
210
0.0
220
0.0
230
1.0
 70
     8
 71
     3
 72
    17
 73
    13
 74
     0
 42
0.00000001
 43
0.00000001
 40
0.0
 40
0.0
 40
0.0
 40
0.0
 40
0.071890250535166
 40
0.1793334850159481
 40
0.2866312248951448
 40
0.3937769167048407
 40
0.5010012960146538
 40
0.608412147372206
 40
0.7158265734132433
 40
0.8230563790989041
 40
0.9302015320867563
 40
1.0
 40
1.0
 40
1.0
 40
1.0
 10
594.245478700653
 20
-148.6528389102475
 30
0.0
 10
594.5213637359014
 20
-148.8124853031782
 30
0.0
 10
595.2095714478869
 20
-149.2107304588339
 30
0.0
 10
596.6773847973708
 20
-149.0193776212195
 30
0.0
 10
598.3622640953179
 20
-148.1725576234272
 30
0.0
 10
599.9594526474552
 20
-146.6657995275125
 30
0.0
 10
601.2825980971153
 20
-144.7065609394656
 30
0.0
 10
602.2041968113032
 20
-142.5161572718186
 30
0.0
 10
602.6399662741254
 20
-140.3452125992996
 30
0.0
 10
602.5303295159129
 20
-138.479742825071
 30
0.0
 10
602.0281434752096
 20
-137.1728768234383
 30
0.0
 10
601.4033080882391
 20
-136.8213695122641
 30
0.0
 10
601.1568309760016
 20
-136.6827113811864
 30
0.0
  0
LWPOLYLINE
  5
113
330
1F
100
AcDbEntity
  8
0
  6
Continuous
 62
     7
370
    25
100
AcDbPolyline
 90
      114
 70
   128
 43
0.0
 10
465.3970848836
 20
-379.8157703206
 10
469.8803864933
 20
-377.3676680149
 10
474.5924350204
 20
-375.0671852762
 10
479.5186657929
 20
-372.921432765
 10
484.6438521138
 20
-370.9370428791
 10
489.9521523259
 20
-369.1201492541
 10
495.4271587774
 20
-367.4763678041
 10
501.0519485372
 20
-366.0107793631
 10
506.8091357025
 20
-364.7279139813
 10
512.6809251376
 20
-363.6317369219
 10
518.649167478
 20
-362.7256364054
 10
524.6954152285
 20
-362.0124131365
 10
530.8009797839
 20
-361.4942716476
 10
536.946989194
 20
-361.1728134843
 10
543.114446496
 20
-361.0490322553
 10
549.2842884327
 20
-361.1233105613
 10
555.4374443764
 20
-361.3954188124
 10
561.5548952746
 20
-361.8645159374
 10
567.6177324372
 20
-362.5291519842
 10
573.607215982
 20
-363.3872726007
 10
579.5048327585
 20
-364.4362253854
 10
585.2923535713
 20
-365.6727680852
 10
590.9518895252
 20
-367.0930786176
 10
596.4659473189
 20
-368.692766884
 10
601.8174833159
 20
-370.4668883398
 10
606.9899562249
 20
-372.4099592771
 10
611.9673782287
 20
-374.5159737752
 10
616.7343644011
 20
-376.7784222637
 10
621.276180261
 20
-379.1903116442
 10
625.5787873158
 20
-381.7441869048
 10
629.6288864539
 20
-384.4321541633
 10
633.4139590507
 20
-387.2459050671
 10
636.9223056638
 20
-390.1767424733
 10
640.143082195
 20
-393.2156073315
 10
643.0663334084
 20
-396.3531066845
 10
645.6830237022
 20
-399.5795427017
 10
647.9850650366
 20
-402.8849426542
 10
649.9653419338
 20
-406.2590897403
 10
651.6177334713
 20
-409.6915546645
 10
652.9371322016
 20
-413.1717278746
 10
653.9194599388
 20
-416.6888523546
 10
654.5616803643
 20
-420.2320568742
 10
654.8618084114
 20
-423.7903895915
 10
654.8189164016
 20
-427.3528519037
 10
654.4331369116
 20
-430.9084324442
 10
653.7056623638
 20
-434.4461411172
 10
652.6387413402
 20
-437.955043068
 10
651.2356716325
 20
-441.4242924816
 10
649.500790049
 20
-444.8431661071
 10
647.439459009
 20
-448.2010964018
 10
645.0580499688
 20
-451.4877041958
 10
642.3639237272
 20
-454.6928307727
 10
639.3654076739
 20
-457.8065692699
 10
636.0717700504
 20
-460.8192953001
 10
632.4931913017
 20
-463.7216966999
 10
628.6407326097
 20
-466.5048023129
 10
624.5263017033
 20
-469.160009719
 10
620.1626160529
 20
-471.6791118245
 10
615.5631635605
 20
-474.0543222289
 10
610.7421608704
 20
-476.2782992931
 10
605.7145094255
 20
-478.3441688315
 10
600.4957494083
 20
-480.2455453596
 10
595.102011707
 20
-481.9765518316
 10
589.5499680556
 20
-483.5318378057
 10
583.8567795031
 20
-484.9065959821
 10
578.0400433688
 20
-486.096577062
 10
572.1177388508
 20
-487.0981028821
 10
566.1081714531
 20
-487.9080777835
 10
560.029916404
 20
-488.5239981802
 10
553.9017612416
 20
-488.9439602976
 10
547.7426477423
 20
-489.1666660567
 10
541.571613373
 20
-489.1914270869
 10
535.4077324472
 20
-489.0181668533
 10
529.2700571676
 20
-488.6474208932
 10
523.1775587369
 20
-488.0803351612
 10
517.1490687184
 20
-487.3186624869
 10
511.2032208294
 20
-486.3647571567
 10
505.358393345
 20
-485.2215676375
 10
499.6326522919
 20
-483.8926274624
 10
494.0436956077
 20
-482.3820443095
 10
488.608798437
 20
-480.6944873046
 10
483.3447597358
 20
-478.8351725898
 10
478.2678503458
 20
-476.8098472003
 10
473.393762703
 20
-474.6247713008
 10
468.7375623332
 20
-472.2866988357
 10
464.3136412847
 20
-469.802856653
 10
460.1356736439
 20
-467.1809221665
 10
456.2165732695
 20
-464.4289996255
 10
452.5684538762
 20
-461.5555950649
 10
449.2025915918
 20
-458.5695900134
 10
446.1293901038
 20
-455.4802140416
 10
443.3583485019
 20
-452.2970162335
 10
440.8980319169
 20
-449.0298356712
 10
438.7560450463
 20
-445.6887710225
 10
436.9390086489
 20
-442.2841493269
 10
435.45253908
 20
-438.8264940747
 10
434.3012309318
 20
-435.3264926804
 10
433.4886428319
 20
-431.7949634476
 10
433.0172864434
 20
-428.2428221307
 10
432.8886187021
 20
-424.6810481952
 10
433.1030373124
 20
-421.1206508799
 10
433.6598795189
 20
-417.5726351691
 10
434.557424154
 20
-414.0479677759
 10
435.7928969588
 20
-410.5575432453
 10
437.3624791577
 20
-407.1121502795
 10
439.261319262
 20
-403.7224383906
 10
441.4835480657
 20
-400.3988849839
 10
444.0222967871
 20
-397.1517629725
 10
446.8697182992
 20
-393.9911090245
 10
450.0170113854
 20
-390.92669254
 10
453.4544479431
 20
-387.9679854548
 10
457.1714030529
 20
-385.1241329629
 10
461.1563878196
 20
-382.4039252495
 10
465.3970848836
 20
-379.8157703206
  0
LWPOLYLINE
  5
114
330
1F
100
AcDbEntity
  8
0
  6
Continuous
 62
     7
370
    25
100
AcDbPolyline
 90
      103
 70
   128
 43
0.0
 10
480.2463272885
 20
-388.3880554948
 10
476.4493186321
 20
-390.7193831372
 10
472.9081201701
 20
-393.1812284578
 10
469.6361648815
 20
-395.7642528339
 10
466.6458644131
 20
-398.4586579694
 10
463.9485619991
 20
-401.2542230627
 10
461.5544894314
 20
-404.1403435779
 10
459.4727282472
 20
-407.1060714711
 10
457.7111752797
 20
-410.1401567208
 10
456.2765127028
 20
-413.2310900022
 10
455.1741826831
 20
-416.3671463469
 10
454.4083667357
 20
-419.5364296187
 10
453.9819698631
 20
-422.7269176408
 10
453.8966095345
 20
-425.9265077992
 10
454.1526095509
 20
-429.1230629525
 10
454.7489988165
 20
-432.3044574722
 10
455.6835150227
 20
-435.4586232391
 10
456.9526132293
 20
-438.573595422
 10
458.5514793121
 20
-441.6375578646
 10
460.4740482245
 20
-444.6388879077
 10
462.713027004
 20
-447.5662004785
 10
465.2599224371
 20
-450.4083912778
 10
468.1050732772
 20
-453.1546789023
 10
471.2376868926
 20
-455.7946457423
 10
474.6458802068
 20
-458.3182774995
 10
478.3167247752
 20
-460.7160011741
 10
482.236295827
 20
-462.9787213789
 10
486.3897250866
 20
-465.0978548412
 10
490.7612571742
 20
-467.0653629619
 10
495.3343093712
 20
-468.8737823088
 10
500.0915345243
 20
-470.5162529278
 10
505.0148868489
 20
-471.9865443654
 10
510.0856903834
 20
-473.2790793024
 10
515.2847098329
 20
-474.3889547111
 10
520.5922235361
 20
-475.311960454
 10
525.9880982753
 20
-476.0445952541
 10
531.4518656496
 20
-476.5840799767
 10
536.9627997178
 20
-476.9283681714
 10
542.4999956193
 20
-477.0761538351
 10
548.0424488734
 20
-477.0268763663
 10
553.5691350566
 20
-476.7807226913
 10
559.059089555
 20
-476.3386265552
 10
564.4914870908
 20
-475.7022649801
 10
569.8457207195
 20
-474.8740519034
 10
575.1014799989
 20
-473.8571290212
 10
580.2388280338
 20
-472.65535387
 10
585.2382771034
 20
-471.2732851948
 10
590.0808625851
 20
-469.7161656554
 10
594.7482148933
 20
-467.9899019396
 10
599.2226291621
 20
-466.101042357
 10
603.4871324055
 20
-464.0567519988
 10
607.5255479021
 20
-461.8647855588
 10
611.3225565585
 20
-459.5334579163
 10
614.8637550205
 20
-457.0716125958
 10
618.1357103091
 20
-454.4885882196
 10
621.1260107775
 20
-451.7941830841
 10
623.8233131915
 20
-448.9986179908
 10
626.2173857592
 20
-446.1124974757
 10
628.2991469434
 20
-443.1467695824
 10
630.0606999109
 20
-440.1126843328
 10
631.4953624878
 20
-437.0217510513
 10
632.5976925075
 20
-433.8856947067
 10
633.3635084549
 20
-430.7164114349
 10
633.7899053275
 20
-427.5259234128
 10
633.8752656561
 20
-424.3263332544
 10
633.6192656397
 20
-421.129778101
 10
633.0228763741
 20
-417.9483835814
 10
632.0883601679
 20
-414.7942178145
 10
630.8192619613
 20
-411.6792456316
 10
629.2203958785
 20
-408.615283189
 10
627.2978269661
 20
-405.6139531459
 10
625.0588481866
 20
-402.686640575
 10
622.5119527535
 20
-399.8444497758
 10
619.6668019134
 20
-397.0981621513
 10
616.534188298
 20
-394.4581953112
 10
613.1259949838
 20
-391.9345635541
 10
609.4551504154
 20
-389.5368398795
 10
605.5355793636
 20
-387.2741196746
 10
601.382150104
 20
-385.1549862123
 10
597.0106180164
 20
-383.1874780916
 10
592.4375658194
 20
-381.3790587447
 10
587.6803406663
 20
-379.7365881257
 10
582.7569883417
 20
-378.2662966882
 10
577.6861848073
 20
-376.9737617512
 10
572.4871653577
 20
-375.8638863424
 10
567.1796516545
 20
-374.9408805995
 10
561.7837769153
 20
-374.2082457994
 10
556.320009541
 20
-373.6687610769
 10
550.8090754728
 20
-373.3244728822
 10
545.2718795713
 20
-373.1766872184
 10
539.7294263172
 20
-373.2259646872
 10
534.202740134
 20
-373.4721183623
 10
528.7127856356
 20
-373.9142144984
 10
523.2803880998
 20
-374.5505760735
 10
517.9261544711
 20
-375.3787891501
 10
512.6703951917
 20
-376.3957120324
 10
507.5330471568
 20
-377.5974871835
 10
502.5335980872
 20
-378.9795558587
 10
497.6910126055
 20
-380.5366753981
 10
493.0236602973
 20
-382.2629391139
 10
488.5492460285
 20
-384.1517986966
 10
484.2847427851
 20
-386.1960890547
 10
480.2463272885
 20
-388.3880554948
  0
LINE
  5
115
330
1F
100
AcDbEntity
  8
0
  6
Continuous
 62
     7
370
    25
100
AcDbLine
 10
654.8859375953
 20
-356.5369923284
 30
0.0
 11
654.8857100932
 21
-356.6667285605
 31
0.0
  0
SPLINE
  5
116
330
1F
100
AcDbEntity
  8
0
  6
Continuous
 62
     7
370
    25
100
AcDbSpline
210
0.0
220
0.0
230
1.0
 70
     8
 71
     3
 72
    14
 73
    10
 74
     0
 42
0.00000001
 43
0.00000001
 40
0.0
 40
0.0
 40
0.0
 40
0.0
 40
0.1429830451512531
 40
0.2859592338107912
 40
0.4291134925656605
 40
0.5723852247250029
 40
0.7154629450073786
 40
0.8583379145963841
 40
1.0
 40
1.0
 40
1.0
 40
1.0
 10
465.3970848835943
 20
-377.3661478849592
 30
0.0
 10
465.9565934958376
 20
-376.9841820342599
 30
0.0
 10
467.075583890107
 20
-376.2202686493385
 30
0.0
 10
468.6052350930805
 20
-374.4108563953239
 30
0.0
 10
469.7863996901877
 20
-372.344032324724
 30
0.0
 10
470.4730803120431
 20
-370.1803350122387
 30
0.0
 10
470.5633519133086
 20
-368.1905719823506
 30
0.0
 10
470.0850033340337
 20
-366.5358372969903
 30
0.0
 10
469.3424312026926
 20
-365.9350928097432
 30
0.0
 10
468.9727278025814
 20
-365.6360009503003
 30
0.0
  0
SPLINE
  5
117
330
1F
100
AcDbEntity
  8
0
  6
Continuous
 62
     7
370
    25
100
AcDbSpline
210
0.0
220
0.0
230
1.0
 70
     8
 71
     3
 72
    10
 73
     6
 74
     0
 42
0.00000001
 43
0.00000001
 40
0.0
 40
0.0
 40
0.0
 40
0.0
 40
0.2966737674574213
 40
0.7260767106429792
 40
1.0
 40
1.0
 40
1.0
 40
1.0
 10
462.0153911315862
 20
-377.6830993675717
 30
0.0
 10
462.2773848334322
 20
-377.8299318442121
 30
0.0
 10
462.9185858633575
 20
-378.1892883271539
 30
0.0
 10
464.1435542376393
 20
-377.996470632949
 30
0.0
 10
465.0457199249475
 20
-377.5428275114176
 30
0.0
 10
465.3970848835943
 20
-377.3661478849592
 30
0.0
  0
LWPOLYLINE
  5
118
330
1F
100
AcDbEntity
  8
0
  6
Continuous
 62
     7
370
    25
100
AcDbPolyline
 90
       29
 70
   128
 43
0.0
 10
582.0697037794
 20
-139.3574394764
 10
582.1938042826
 20
-138.0139158123
 10
582.5598828748
 20
-136.5944786437
 10
583.1495828467
 20
-135.1703044772
 10
583.9333341794
 20
-133.8128073524
 10
584.8718363084
 20
-132.5900578436
 10
585.9180288182
 20
-131.5633697168
 10
587.0194512477
 20
-130.7842254018
 10
588.1208736772
 20
-130.2916944481
 10
589.1670661869
 20
-130.1104744142
 10
590.1055683159
 20
-130.2496524293
 10
590.8893196487
 20
-130.7022495267
 10
591.4790196206
 20
-131.4455705979
 10
591.8450982128
 20
-132.4423424207
 10
591.969198716
 20
-133.6425826937
 10
591.8450982128
 20
-134.9861063577
 10
591.4790196206
 20
-136.4055435264
 10
590.8893196487
 20
-137.8297176928
 10
590.1055683159
 20
-139.1872148176
 10
589.1670661869
 20
-140.4099643265
 10
588.1208736772
 20
-141.4366524533
 10
587.0194512477
 20
-142.2157967682
 10
585.9180288182
 20
-142.708327722
 10
584.8718363084
 20
-142.8895477559
 10
583.9333341794
 20
-142.7503697408
 10
583.1495828467
 20
-142.2977726434
 10
582.5598828748
 20
-141.5544515721
 10
582.1938042826
 20
-140.5576797494
 10
582.0697037794
 20
-139.3574394764
  0
LWPOLYLINE
  5
119
330
1F
100
AcDbEntity
  8
0
  6
Continuous
 62
     7
370
    25
100
AcDbPolyline
 90
       25
 70
   128
 43
0.0
 10
583.4839173417
 20
-138.5410313646
 10
583.6043877382
 20
-137.4148037189
 10
583.9575890692
 20
-136.2262344671
 10
584.5194512477
 20
-135.0563226392
 10
585.2516842947
 20
-133.9847957932
 10
586.1043877382
 20
-133.0846767127
 10
587.0194512477
 20
-132.4173070256
 10
587.9345147571
 20
-132.0281668731
 10
588.7872182006
 20
-131.9437755137
 10
589.5194512477
 20
-132.1698840788
 10
590.0813134262
 20
-132.6910836436
 10
590.4345147571
 20
-133.4718553189
 10
590.5549851536
 20
-134.4589908055
 10
590.4345147571
 20
-135.5852184511
 10
590.0813134262
 20
-136.773787703
 10
589.5194512477
 20
-137.9436995308
 10
588.7872182006
 20
-139.0152263769
 10
587.9345147571
 20
-139.9153454573
 10
587.0194512477
 20
-140.5827151445
 10
586.1043877382
 20
-140.9718552969
 10
585.2516842947
 20
-141.0562466564
 10
584.5194512477
 20
-140.8301380912
 10
583.9575890692
 20
-140.3089385265
 10
583.6043877382
 20
-139.5281668511
 10
583.4839173417
 20
-138.5410313646
  0
LWPOLYLINE
  5
11A
330
1F
100
AcDbEntity
  8
0
  6
Continuous
 62
     7
370
    25
100
AcDbPolyline
 90
       29
 70
   128
 43
0.0
 10
449.8407356975
 20
-368.3847297545
 10
449.9648362007
 20
-367.0412060904
 10
450.3309147929
 20
-365.6217689218
 10
450.9206147648
 20
-364.1975947553
 10
451.7043660975
 20
-362.8400976305
 10
452.6428682266
 20
-361.6173481216
 10
453.6890607363
 20
-360.5906599949
 10
454.7904831658
 20
-359.8115156799
 10
455.8919055953
 20
-359.3189847261
 10
456.938098105
 20
-359.1377646922
 10
457.8766002341
 20
-359.2769427074
 10
458.6603515668
 20
-359.7295398047
 10
459.2500515387
 20
-360.472860876
 10
459.6161301309
 20
-361.4696326988
 10
459.7402306341
 20
-362.6698729717
 10
459.6161301309
 20
-364.0133966358
 10
459.2500515387
 20
-365.4328338044
 10
458.6603515668
 20
-366.8570079709
 10
457.8766002341
 20
-368.2145050957
 10
456.938098105
 20
-369.4372546045
 10
455.8919055953
 20
-370.4639427313
 10
454.7904831658
 20
-371.2430870463
 10
453.6890607363
 20
-371.7356180001
 10
452.6428682266
 20
-371.916838034
 10
451.7043660975
 20
-371.7776600188
 10
450.9206147648
 20
-371.3250629215
 10
450.3309147929
 20
-370.5817418502
 10
449.9648362007
 20
-369.5849700274
 10
449.8407356975
 20
-368.3847297545
  0
LWPOLYLINE
  5
11B
330
1F
100
AcDbEntity
  8
0
  6
Continuous
 62
     7
370
    25
100
AcDbPolyline
 90
       25
 70
   128
 43
0.0
 10
451.2549492599
 20
-367.5683216426
 10
451.3754196563
 20
-366.442093997
 10
451.7286209873
 20
-365.2535247451
 10
452.2904831658
 20
-364.0836129173
 10
453.0227162128
 20
-363.0120860713
 10
453.8754196563
 20
-362.1119669908
 10
454.7904831658
 20
-361.4445973037
 10
455.7055466753
 20
-361.0554571512
 10
456.5582501188
 20
-360.9710657917
 10
457.2904831658
 20
-361.1971743569
 10
457.8523453443
 20
-361.7183739216
 10
458.2055466753
 20
-362.499145597
 10
458.3260170717
 20
-363.4862810835
 10
458.2055466753
 20
-364.6125087292
 10
457.8523453443
 20
-365.8010779811
 10
457.2904831658
 20
-366.9709898089
 10
456.5582501188
 20
-368.0425166549
 10
455.7055466753
 20
-368.9426357354
 10
454.7904831658
 20
-369.6100054225
 10
453.8754196563
 20
-369.999145575
 10
453.0227162128
 20
-370.0835369345
 10
452.2904831658
 20
-369.8574283693
 10
451.7286209873
 20
-369.3362288045
 10
451.3754196563
 20
-368.5554571292
 10
451.2549492599
 20
-367.5683216426
  0
LWPOLYLINE
  5
11C
330
1F
100
AcDbEntity
  8
0
  6
Continuous
 62
     1
370
    25
100
AcDbPolyline
 90
       44
 70
   128
 43
0.0
 10
545.3001511577
 20
-172.8301720611
 10
545.4214534305
 20
-177.9372742073
 10
545.7849853107
 20
-183.1686432165
 10
546.3896231421
 20
-188.5081092269
 10
547.2334980237
 20
-193.9391682552
 10
548.3140015866
 20
-199.4450332091
 10
549.6277940563
 20
-205.0086857756
 10
551.1708145755
 20
-210.6129290234
 10
552.9382937563
 20
-216.2404405578
 10
554.9247684217
 20
-221.8738260632
 10
557.1240984925
 20
-227.4956730677
 10
559.5294859653
 20
-233.0886047646
 10
562.1334959254
 20
-238.6353337223
 10
564.9280795273
 20
-244.1187153197
 10
567.9045988731
 20
-249.5218007383
 10
571.0538537122
 20
-254.8278893509
 10
574.3661098782
 20
-260.0205803416
 10
577.8311293773
 20
-265.0838234001
 10
581.4382020327
 20
-270.0019683323
 10
585.1761785895
 20
-274.759813434
 10
589.0335051765
 20
-279.3426524787
 10
592.9982590182
 20
-283.7363201736
 10
597.0581852876
 20
-287.9272359436
 10
601.2007349854
 20
-291.9024459083
 10
605.4131037279
 20
-295.6496629213
 10
609.6822713246
 20
-299.1573045497
 10
613.9950420232
 20
-302.4145288743
 10
618.3380852966
 20
-305.4112680013
 10
622.6979770469
 20
-308.1382591818
 10
627.0612410986
 20
-310.5870734423
 10
631.4143908525
 20
-312.7501416383
 10
635.7439709723
 20
-314.62077785
 10
640.0365989739
 20
-316.193200048
 10
644.2790065901
 20
-317.4625479655
 10
648.4580807821
 20
-318.4248981207
 10
652.5609042711
 20
-319.0772759445
 10
656.5747954649
 20
-319.4176649744
 10
660.4873476557
 20
-319.4450130875
 10
664.2864673689
 20
-319.1592357522
 10
667.9604117433
 20
-318.56121629
 10
671.4978248273
 20
-317.6528031447
 10
674.8877726798
 20
-316.4368041693
 10
678.1197771663
 20
-314.916977947
 10
679.2844935307
 20
-314.2722459916
  0
LWPOLYLINE
  5
11D
330
1F
100
AcDbEntity
  8
0
  6
Continuous
 62
     1
370
    25
100
AcDbPolyline
 90
       16
 70
   128
 43
0.0
 10
568.2935142081
 20
-122.009398543
 10
567.9045988731
 20
-122.2370831932
 10
564.9280795273
 20
-124.2035525256
 10
562.1334959254
 20
-126.4603765754
 10
559.5294859653
 20
-129.0005796289
 10
557.1240984925
 20
-131.816310064
 10
554.9247684217
 20
-134.8988646192
 10
552.9382937563
 20
-138.2387152952
 10
551.1708145755
 20
-141.8255388047
 10
549.6277940563
 20
-145.648248482
 10
548.3140015866
 20
-149.6950285505
 10
547.2334980237
 20
-153.9533706449
 10
546.3896231421
 20
-158.4101124739
 10
545.7849853107
 20
-163.0514785038
 10
545.4214534305
 20
-167.8631225382
 10
545.3001511577
 20
-172.8301720611
  0
LWPOLYLINE
  5
11E
330
1F
100
AcDbEntity
  8
0
  6
Continuous
 62
     1
370
    25
100
AcDbPolyline
 90
       44
 70
   128
 43
0.0
 10
465.3970848836
 20
-311.2263421222
 10
469.8803864933
 20
-308.7782398165
 10
474.5924350204
 20
-306.4777570778
 10
479.5186657929
 20
-304.3320045666
 10
484.6438521138
 20
-302.3476146807
 10
489.9521523259
 20
-300.5307210557
 10
495.4271587774
 20
-298.8869396057
 10
501.0519485372
 20
-297.4213511647
 10
506.8091357025
 20
-296.1384857829
 10
512.6809251376
 20
-295.0423087235
 10
518.649167478
 20
-294.136208207
 10
524.6954152285
 20
-293.4229849381
 10
530.8009797839
 20
-292.9048434492
 10
536.946989194
 20
-292.5833852859
 10
543.114446496
 20
-292.4596040569
 10
549.2842884327
 20
-292.5338823629
 10
555.4374443764
 20
-292.805990614
 10
561.5548952746
 20
-293.275087739
 10
567.6177324372
 20
-293.9397237858
 10
573.607215982
 20
-294.7978444023
 10
579.5048327585
 20
-295.846797187
 10
585.2923535713
 20
-297.0833398868
 10
590.9518895252
 20
-298.5036504192
 10
596.4659473189
 20
-300.1033386856
 10
601.8174833159
 20
-301.8774601414
 10
606.9899562249
 20
-303.8205310787
 10
611.9673782287
 20
-305.9265455768
 10
616.7343644011
 20
-308.1889940653
 10
621.276180261
 20
-310.6008834458
 10
625.5787873158
 20
-313.1547587064
 10
629.6288864539
 20
-315.8427259649
 10
633.4139590507
 20
-318.6564768687
 10
636.9223056638
 20
-321.5873142749
 10
640.143082195
 20
-324.6261791331
 10
643.0663334084
 20
-327.7636784861
 10
645.6830237022
 20
-330.9901145033
 10
647.9850650366
 20
-334.2955144558
 10
649.9653419338
 20
-337.6696615419
 10
651.6177334713
 20
-341.1021264661
 10
652.9371322016
 20
-344.5822996762
 10
653.9194599388
 20
-348.0994241562
 10
654.5616803643
 20
-351.6426286758
 10
654.8618084114
 20
-355.2009613931
 10
654.8859375953
 20
-356.5369923284
  0
LWPOLYLINE
  5
11F
330
1F
100
AcDbEntity
  8
0
  6
Continuous
 62
     1
370
    25
100
AcDbPolyline
 90
       16
 70
   128
 43
0.0
 10
432.8859375953
 20
-356.5369923284
 10
432.8886187021
 20
-356.0916199967
 10
433.1030373124
 20
-352.5312226815
 10
433.6598795189
 20
-348.9832069707
 10
434.557424154
 20
-345.4585395775
 10
435.7928969588
 20
-341.9681150469
 10
437.3624791577
 20
-338.5227220811
 10
439.261319262
 20
-335.1330101922
 10
441.4835480657
 20
-331.8094567855
 10
444.0222967871
 20
-328.5623347741
 10
446.8697182992
 20
-325.4016808261
 10
450.0170113854
 20
-322.3372643416
 10
453.4544479431
 20
-319.3785572564
 10
457.1714030529
 20
-316.5347047645
 10
461.1563878196
 20
-313.8144970511
 10
465.3970848836
 20
-311.2263421222
  0
LWPOLYLINE
  5
120
330
1F
100
AcDbEntity
  8
0
  6
Continuous
 62
     1
370
    25
100
AcDbPolyline
 90
       30
 70
   128
 43
0.0
 10
619.679833724
 20
-142.4333304373
 10
621.8292183435
 20
-143.5556433241
 10
625.7487893953
 20
-145.8183635289
 10
629.6609263093
 20
-148.3554275921
 10
633.5507890102
 20
-151.1572115605
 10
637.4036219164
 20
-154.213087308
 10
641.204809913
 20
-157.5114628511
 10
644.9399337919
 20
-161.0398263216
 10
648.5948249488
 20
-164.7847934283
 10
652.1556191298
 20
-168.7321582282
 10
655.6088090228
 20
-172.8669470145
 10
658.9412954957
 20
-177.1734751172
 10
662.1404372859
 20
-181.6354063999
 10
665.1940989528
 20
-186.2358152291
 10
668.0906969118
 20
-190.9572506783
 10
670.8192433745
 20
-195.7818027256
 10
673.3693880298
 20
-200.6911701926
 10
675.7314573053
 20
-205.6667301669
 10
677.8964910634
 20
-210.6896086451
 10
679.8562765893
 20
-215.7407521289
 10
681.6033797452
 20
-220.8009999008
 10
683.1311731706
 20
-225.8511567078
 10
684.4338614215
 20
-230.8720655752
 10
685.5065029554
 20
-235.844680476
 10
686.3450288753
 20
-240.7501385786
 10
686.9462583654
 20
-245.5698318001
 10
687.3079107561
 20
-250.2854773934
 10
687.4286141762
 20
-254.8791872993
 10
687.3079107561
 20
-259.3335360029
 10
687.2951436344
 20
-259.5591734007
  0
LWPOLYLINE
  5
121
330
1F
100
AcDbEntity
  8
0
  6
Continuous
 62
     1
370
    25
100
AcDbPolyline
 90
       30
 70
   128
 43
0.0
 10
476.2778536471
 20
-390.8317064276
 10
478.3167247752
 20
-392.1265729757
 10
482.236295827
 20
-394.3892931805
 10
486.3897250866
 20
-396.5084266428
 10
490.7612571742
 20
-398.4759347635
 10
495.3343093712
 20
-400.2843541104
 10
500.0915345243
 20
-401.9268247294
 10
505.0148868489
 20
-403.397116167
 10
510.0856903834
 20
-404.689651104
 10
515.2847098329
 20
-405.7995265127
 10
520.5922235361
 20
-406.7225322556
 10
525.9880982753
 20
-407.4551670557
 10
531.4518656496
 20
-407.9946517783
 10
536.9627997178
 20
-408.338939973
 10
542.4999956193
 20
-408.4867256367
 10
548.0424488734
 20
-408.4374481679
 10
553.5691350566
 20
-408.1912944929
 10
559.059089555
 20
-407.7491983568
 10
564.4914870908
 20
-407.1128367817
 10
569.8457207195
 20
-406.284623705
 10
575.1014799989
 20
-405.2677008228
 10
580.2388280338
 20
-404.0659256716
 10
585.2382771034
 20
-402.6838569964
 10
590.0808625851
 20
-401.126737457
 10
594.7482148933
 20
-399.4004737412
 10
599.2226291621
 20
-397.5116141586
 10
603.4871324055
 20
-395.4673238004
 10
607.5255479021
 20
-393.2753573604
 10
611.3225565585
 20
-390.9440297179
 10
611.4940215435
 20
-390.8317064276
  0
ENDSEC
  0
SECTION
  2
OBJECTS
  0
DICTIONARY
  5
C
330
0
100
AcDbDictionary
281
     1
  3
ACAD_GROUP
350
D
  3
ACAD_LAYOUT
350
1A
  3
ACAD_MLINESTYLE
350
17
  3
ACAD_PLOTSETTINGS
350
19
  3
ACAD_PLOTSTYLENAME
350
E
  3
ACAD_SCALELIST
350
47
  3
DWGPROPS
350
122
  0
DICTIONARY
  5
D
102
{ACAD_REACTORS
330
C
102
}
330
C
100
AcDbDictionary
281
     1
  0
DICTIONARY
  5
1A
102
{ACAD_REACTORS
330
C
102
}
330
C
100
AcDbDictionary
281
     1
  3
Layout1
350
1E
  3
Layout2
350
26
  3
Model
350
22
  0
DICTIONARY
  5
17
102
{ACAD_REACTORS
330
C
102
}
330
C
100
AcDbDictionary
281
     1
  3
Standard
350
18
  0
DICTIONARY
  5
19
102
{ACAD_REACTORS
330
C
102
}
330
C
100
AcDbDictionary
281
     1
  0
ACDBDICTIONARYWDFLT
  5
E
102
{ACAD_REACTORS
330
C
102
}
330
C
100
AcDbDictionary
281
     1
  3
Normal
350
F
100
AcDbDictionaryWithDefault
340
F
  0
DICTIONARY
  5
47
102
{ACAD_REACTORS
330
C
102
}
330
C
100
AcDbDictionary
281
     1
  3
A0
350
48
  3
A1
350
49
  3
A2
350
4A
  3
A3
350
4B
  3
A4
350
4C
  3
A5
350
4D
  3
A6
350
4E
  3
A7
350
4F
  3
A8
350
50
  3
A9
350
51
  3
B0
350
52
  3
B1
350
53
  3
B2
350
54
  3
B3
350
55
  3
B4
350
56
  3
B5
350
57
  3
B6
350
58
  3
B7
350
59
  3
B8
350
5A
  3
B9
350
5B
  3
C0
350
5C
  3
C1
350
5D
  3
C2
350
5E
  3
C3
350
5F
  3
C4
350
60
  3
C5
350
61
  3
C6
350
62
  3
C7
350
63
  3
C8
350
64
  3
C9
350
65
  3
D0
350
66
  3
D1
350
67
  3
D2
350
68
  0
XRECORD
  5
122
102
{ACAD_REACTORS
330
C
102
}
330
C
100
AcDbXrecord
280
     1
  1
DWGPROPS COOKIE
  2

  3

  4

  6

  7

  8
b.kav
  9

300
=
301
=
302
=
303
=
304
=
305
=
306
=
307
=
308
=
309
=
 40
0.0
 41
2459741.479592558
 42
2459741.479592732
  1

 90
        0
  0
LAYOUT
  5
1E
102
{ACAD_REACTORS
330
1A
102
}
330
1A
100
AcDbPlotSettings
  1

  2
none_device
  4

  6

 40
0.0
 41
0.0
 42
0.0
 43
0.0
 44
0.0
 45
0.0
 46
0.0
 47
0.0
 48
0.0
 49
0.0
140
0.0
141
0.0
142
1.0
143
1.0
 70
   688
 72
     1
 73
     0
 74
     5
  7

 75
    16
147
1.0
148
0.0
149
0.0
100
AcDbLayout
  1
Layout1
 70
     1
 71
     1
 10
0.0
 20
0.0
 11
420.0
 21
297.0
 12
0.0
 22
0.0
 32
0.0
 14
1.0000000000E+20
 24
1.0000000000E+20
 34
1.0000000000E+20
 15
-1.0000000000E+20
 25
-1.0000000000E+20
 35
-1.0000000000E+20
146
0.0
 13
0.0
 23
0.0
 33
0.0
 16
1.0
 26
0.0
 36
0.0
 17
0.0
 27
1.0
 37
0.0
 76
     0
330
1B
  0
LAYOUT
  5
26
102
{ACAD_REACTORS
330
1A
102
}
330
1A
100
AcDbPlotSettings
  1

  2
none_device
  4

  6

 40
0.0
 41
0.0
 42
0.0
 43
0.0
 44
0.0
 45
0.0
 46
0.0
 47
0.0
 48
0.0
 49
0.0
140
0.0
141
0.0
142
1.0
143
1.0
 70
   688
 72
     1
 73
     0
 74
     5
  7

 75
    16
147
1.0
148
0.0
149
0.0
100
AcDbLayout
  1
Layout2
 70
     1
 71
     2
 10
0.0
 20
0.0
 11
0.0
 21
0.0
 12
0.0
 22
0.0
 32
0.0
 14
0.0
 24
0.0
 34
0.0
 15
0.0
 25
0.0
 35
0.0
146
0.0
 13
0.0
 23
0.0
 33
0.0
 16
1.0
 26
0.0
 36
0.0
 17
0.0
 27
1.0
 37
0.0
 76
     0
330
23
  0
LAYOUT
  5
22
102
{ACAD_REACTORS
330
1A
102
}
330
1A
100
AcDbPlotSettings
  1

  2
none_device
  4
Letter_(8.50_x_11.00_Inches)
  6

 40
6.35
 41
6.35
 42
6.35000508
 43
6.35000508
 44
215.9
 45
279.4
 46
0.0
 47
0.0
 48
0.0
 49
0.0
140
0.0
141
0.0
142
1.0
143
1.0
 70
  1712
 72
     1
 73
     0
 74
     0
  7

 75
     0
147
1.0
148
0.0
149
0.0
100
AcDbLayout
  1
Model
 70
     1
 71
     0
 10
0.0
 20
0.0
 11
279.4
 21
215.9
 12
0.0
 22
0.0
 32
0.0
 14
0.0
 24
0.0
 34
0.0
 15
279.4
 25
215.9
 35
0.0
146
0.0
 13
0.0
 23
0.0
 33
0.0
 16
1.0
 26
0.0
 36
0.0
 17
0.0
 27
1.0
 37
0.0
 76
     0
330
1F
331
29
  0
MLINESTYLE
  5
18
102
{ACAD_REACTORS
330
17
102
}
330
17
100
AcDbMlineStyle
  2
Standard
 70
     0
  3

 62
   256
 51
90.0
 52
90.0
 71
     2
 49
0.5
 62
   256
  6
BYLAYER
 49
-0.5
 62
   256
  6
BYLAYER
  0
ACDBPLACEHOLDER
  5
F
102
{ACAD_REACTORS
330
E
102
}
330
E
  0
SCALE
  5
48
102
{ACAD_REACTORS
330
47
102
}
330
47
100
AcDbScale
 70
     0
300
1:1
140
1.0
141
1.0
290
     1
  0
SCALE
  5
49
102
{ACAD_REACTORS
330
47
102
}
330
47
100
AcDbScale
 70
     0
300
1:2
140
1.0
141
2.0
290
     0
  0
SCALE
  5
4A
102
{ACAD_REACTORS
330
47
102
}
330
47
100
AcDbScale
 70
     0
300
1:4
140
1.0
141
4.0
290
     0
  0
SCALE
  5
4B
102
{ACAD_REACTORS
330
47
102
}
330
47
100
AcDbScale
 70
     0
300
1:5
140
1.0
141
5.0
290
     0
  0
SCALE
  5
4C
102
{ACAD_REACTORS
330
47
102
}
330
47
100
AcDbScale
 70
     0
300
1:8
140
1.0
141
8.0
290
     0
  0
SCALE
  5
4D
102
{ACAD_REACTORS
330
47
102
}
330
47
100
AcDbScale
 70
     0
300
1:10
140
1.0
141
10.0
290
     0
  0
SCALE
  5
4E
102
{ACAD_REACTORS
330
47
102
}
330
47
100
AcDbScale
 70
     0
300
1:16
140
1.0
141
16.0
290
     0
  0
SCALE
  5
4F
102
{ACAD_REACTORS
330
47
102
}
330
47
100
AcDbScale
 70
     0
300
1:20
140
1.0
141
20.0
290
     0
  0
SCALE
  5
50
102
{ACAD_REACTORS
330
47
102
}
330
47
100
AcDbScale
 70
     0
300
1:30
140
1.0
141
30.0
290
     0
  0
SCALE
  5
51
102
{ACAD_REACTORS
330
47
102
}
330
47
100
AcDbScale
 70
     0
300
1:40
140
1.0
141
40.0
290
     0
  0
SCALE
  5
52
102
{ACAD_REACTORS
330
47
102
}
330
47
100
AcDbScale
 70
     0
300
1:50
140
1.0
141
50.0
290
     0
  0
SCALE
  5
53
102
{ACAD_REACTORS
330
47
102
}
330
47
100
AcDbScale
 70
     0
300
1:100
140
1.0
141
100.0
290
     0
  0
SCALE
  5
54
102
{ACAD_REACTORS
330
47
102
}
330
47
100
AcDbScale
 70
     0
300
2:1
140
2.0
141
1.0
290
     0
  0
SCALE
  5
55
102
{ACAD_REACTORS
330
47
102
}
330
47
100
AcDbScale
 70
     0
300
4:1
140
4.0
141
1.0
290
     0
  0
SCALE
  5
56
102
{ACAD_REACTORS
330
47
102
}
330
47
100
AcDbScale
 70
     0
300
8:1
140
8.0
141
1.0
290
     0
  0
SCALE
  5
57
102
{ACAD_REACTORS
330
47
102
}
330
47
100
AcDbScale
 70
     0
300
10:1
140
10.0
141
1.0
290
     0
  0
SCALE
  5
58
102
{ACAD_REACTORS
330
47
102
}
330
47
100
AcDbScale
 70
     0
300
100:1
140
100.0
141
1.0
290
     0
  0
SCALE
  5
59
102
{ACAD_REACTORS
330
47
102
}
330
47
100
AcDbScale
 70
     0
300
1/128" = 1'-0"
140
0.0078125
141
12.0
290
     0
  0
SCALE
  5
5A
102
{ACAD_REACTORS
330
47
102
}
330
47
100
AcDbScale
 70
     0
300
1/64" = 1'-0"
140
0.015625
141
12.0
290
     0
  0
SCALE
  5
5B
102
{ACAD_REACTORS
330
47
102
}
330
47
100
AcDbScale
 70
     0
300
1/32" = 1'-0"
140
0.03125
141
12.0
290
     0
  0
SCALE
  5
5C
102
{ACAD_REACTORS
330
47
102
}
330
47
100
AcDbScale
 70
     0
300
1/16" = 1'-0"
140
0.0625
141
12.0
290
     0
  0
SCALE
  5
5D
102
{ACAD_REACTORS
330
47
102
}
330
47
100
AcDbScale
 70
     0
300
3/32" = 1'-0"
140
0.09375
141
12.0
290
     0
  0
SCALE
  5
5E
102
{ACAD_REACTORS
330
47
102
}
330
47
100
AcDbScale
 70
     0
300
1/8" = 1'-0"
140
0.125
141
12.0
290
     0
  0
SCALE
  5
5F
102
{ACAD_REACTORS
330
47
102
}
330
47
100
AcDbScale
 70
     0
300
3/16" = 1'-0"
140
0.1875
141
12.0
290
     0
  0
SCALE
  5
60
102
{ACAD_REACTORS
330
47
102
}
330
47
100
AcDbScale
 70
     0
300
1/4" = 1'-0"
140
0.25
141
12.0
290
     0
  0
SCALE
  5
61
102
{ACAD_REACTORS
330
47
102
}
330
47
100
AcDbScale
 70
     0
300
3/8" = 1'-0"
140
0.375
141
12.0
290
     0
  0
SCALE
  5
62
102
{ACAD_REACTORS
330
47
102
}
330
47
100
AcDbScale
 70
     0
300
1/2" = 1'-0"
140
0.5
141
12.0
290
     0
  0
SCALE
  5
63
102
{ACAD_REACTORS
330
47
102
}
330
47
100
AcDbScale
 70
     0
300
3/4" = 1'-0"
140
0.75
141
12.0
290
     0
  0
SCALE
  5
64
102
{ACAD_REACTORS
330
47
102
}
330
47
100
AcDbScale
 70
     0
300
1" = 1'-0"
140
1.0
141
12.0
290
     0
  0
SCALE
  5
65
102
{ACAD_REACTORS
330
47
102
}
330
47
100
AcDbScale
 70
     0
300
1-1/2" = 1'-0"
140
1.5
141
12.0
290
     0
  0
SCALE
  5
66
102
{ACAD_REACTORS
330
47
102
}
330
47
100
AcDbScale
 70
     0
300
3" = 1'-0"
140
3.0
141
12.0
290
     0
  0
SCALE
  5
67
102
{ACAD_REACTORS
330
47
102
}
330
47
100
AcDbScale
 70
     0
300
6" = 1'-0"
140
6.0
141
12.0
290
     0
  0
SCALE
  5
68
102
{ACAD_REACTORS
330
47
102
}
330
47
100
AcDbScale
 70
     0
300
1'-0" = 1'-0"
140
12.0
141
12.0
290
     0
  0
ENDSEC
  0
EOF
